» » »

Clint Mansell - Lux Aeterna Tabs

Artists:  A B C D E F G H I J K L M N O P Q R S T U V W X Y Z # 

Lux Aeterna Tabs

(ver. 2) Click to play this song!
Clint Mansell
 Rating:
4/5 (4 votes)

 Lux Aeterna lessons Tabs too difficult? Try these video lessons and learn fast
 
                Lux Æterna
Requiem for a Dream
Clint Mansell
702TYGhost

This tab is based on a piece of sheet music that I was able to find at scribd.com 
Piano-and-Violin). I have not been able to test how the three different parts 
sound together, but I know that the melody (Guitar I) sounds very much like the 
original. There are three parts (Guitar I, II, & III) with forty-one measures 
each. I recommend listening to the piece in order to get the tempo & rhythm down 
well. I take many symbols from traditional sheet music, so the repeat bars & all 
of the rests are my attempt at recreations of them. Enjoy!

Key:

W Whole note
H Half note
Q Quarter note
E Eighth note
S Sixteenth note
r Rest

Tuning: Drop D


Guitar I
    Wr
e]-------|
b]------o|
g]-[==]--| x4
D]-------|
A]------o|
D]-------|

    W    H  H    W    H  H
e]-----|-------|----|--------|
b]o----|-------|----|-------o|
g]--0--|-2--3--|-0--|--------| x3
D]-----|-------|----|-3--0---|
A]o----|-------|----|-------o|
D]-----|-------|----|--------|

    E E Er S S S S QrS S   S S QrS S S S S S S S S S
e]--6-3----6-3-6-3---6-3-|-6-3---6-3-6-3-6-3-6-3-6-3-|
b]o---------------->-----|----->---------------------|
g]------*/---------\-----|-----\---------------------|
D]------/----------/-----|-----/---------------------|
A]o----------------------|---------------------------|
D]-----------------------|---------------------------|

   S S QrS S S S QrS S   S S QrS S S S S S S S S S
e]-6-5---6-5-6-5---6-5-|-6-5---6-5-6-5-6-5-6-5-6-5--|
b]----->--------->-----|----->---------------------o|
g]-----\---------\-----|-----\----------------------| x2
D]-----/---------/-----|-----/----------------------|
A]---------------------|---------------------------o|
D]---------------------|----------------------------|

    S S S S E  S S S S S S E  S S   S S S S E  S S S S E  S S E
e]--6-6-5-5-3--6-6-6-6-5-5-4--6-6-|-6-6-5-5-3--3-3-3-5-5--5-6-6---|
b]o-------------------------------|------------------------------o|
g]--------------------------------|-------------------------------| x2
D]--------------------------------|-------------------------------|
A]o-------------------------------|------------------------------o|
D]--------------------------------|-------------------------------|

    Wr    H  H     Wr    H  H
e]-------|-5--7--|------|-------|
b]o------|-------|------|-------|
g]--[==]-|-------|-[==]-|-------|
D]-------|-------|------|-3--1--|
A]o------|-------|------|-------|
D]-------|-------|------|-------|

   E E Er S S S S QrS S   S S QrS S S S S S S S S S
e]-6-3----6-3-6-3---6-3-|-6-3---6-3-6-3-6-3-6-3-6-3-|
b]---------------->-----|----->---------------------|
g]-----*/---------\-----|-----\---------------------|
D]-----/----------/-----|-----/---------------------|
A]----------------------|---------------------------|
D]----------------------|---------------------------|

   S S QrS S S S QrS S   S S QrS S S S S S S S S S
e]-6-5---6-5-6-5---6-5-|-6-5---6-5-6-5-6-5-6-5-6-5-|
b]----->--------->-----|----->---------------------|
g]-----\---------\-----|-----\---------------------|
D]-----/---------/-----|-----/---------------------|
A]---------------------|---------------------------|
D]---------------------|---------------------------|

   E E Er S S S S QrS S   S S QrS S S S S S S S S S
e]-6-3----6-3-6-3---6-3-|-6-3---6-3-6-3-6-3-6-3-6-3-|
b]---------------->-----|----->---------------------|
g]-----*/---------\-----|-----\---------------------|
D]-----/----------/-----|-----/---------------------|
A]----------------------|---------------------------|
D]----------------------|---------------------------|

     Wr
e]--------||    
b]o------o||   
g]--[==]--|| x3
D]--------||   
A]o------o||   
D]--------||   


Guitar II
   E E E E E E E E   E E E E E E E E
e]-----------------|------------------|
b]-----------------|---------2-------o|
g]-3-2-0---3-2-0---|-3-2-0-----3-2----| x4
D]-------0-------0-|-------0-------0--|
A]-----------------|-----------------o|
D]-----------------|------------------|

    E E E E E E E E   E E E E E E E E   E E E E E E E E   E E E E E E E E
e]--3---3---3---3---|-3---3---3---3---|-1---1---1---1---|-5---5---5---1----|
b]o-----------------|---------2-------|-----------------|---------2-------o|
g]--3-2-0---3-2-0---|-3-2-0-----3-2---|-3-2-0---3-2-0---|-3-2-0-----3-2----| x2
D]--------0-------0-|-------0-------0-|-------0-------0-|-------0-------0--|
A]o-----------------|-----------------|-----------------|-----------------o|
D]------------------|-----------------|-----------------|------------------|

    E E E E E E E E   E E E E E E E E   E E E E E E E E   E E E E E E E E
e]--3---3---3---3---|-3---3---3---3---|-1---1---1---1---|-5---5---5---1----|
b]o-----------------|---------2-------|-----------------|-----------------o|
g]--3-2-0---3-2-0---|-3-2-0-----3-2---|-3-2-0---3-2-0---|-3-2-0---3-2-0----| x5
D]--------0-------0-|-------0-------0-|-------0-------0-|-------0-------0--|
A]o-----------------|-----------------|-----------------|-----------------o|
D]------------------|-----------------|-----------------|------------------|

    E E E E E E E E   E E E E E E E E   E E E E E E E E   Q Q Q Q---W
e]--3---3---3---3---|-3---3---3---3---|-----------------|---------|-----||
b]------------------|---------2-------|-----------------|---------|-----||
g]--3-2-0---3-2-0---|-3-2-0-----3-2---|-3-2-0---3-2-0---|-3-2-0---|-----||
D]--------0-------0-|-------0-------0-|-------0-------0-|-------0-|-0---||
A]------------------|-----------------|-----------------|---------|-----||
D]------------------|-----------------|-----------------|---------|-----||


Guitar III
   W    H  H          W-----W      Wr   
e]----|--------|     ----|------|------|| 
b]----|-------o|     ----|------|------||
g]-0--|--------| x19 -0--|-(0)--|-[==]-||
D]----|-1--0---|     ----|------|------||
A]----|-------o|     ----|------|------||
D]-3--|-1--0---|     -3--|-(3)--|------||
            
Submit corrections


        Lux Aeterna lessons Hard to play? Try these video lessons and learn fast Lux Aeterna lessons
        
↑ Back to top | Tablatures and chords for acoustic guitar and electric guitar, ukulele, drums are parodies/interpretations of the original songs. You may use it for private study, scholarship, research or language learning purposes only