» » »

Clint Mansell - An End Once And For All Tabs

Artists:  A B C D E F G H I J K L M N O P Q R S T U V W X Y Z # 

An End Once And For All Tabs

(ver. 2) Click to play this song!
Clint Mansell
 Rating:
4.6/5 (9 votes)

 An End Once And For All lessons Tabs too difficult? Try these video lessons and learn fast
 
                -----------------------------------------------------------------------------
                  An End Once and For All  -  Clint Mansell
-----------------------------------------------------------------------------


C Tuning: C F A# D# G c



Finger Picking
  Guitar 1
  ---4--------0--------2--------4--------4--------2--------4--------6----|
  ---4--------0--------2--------4--------4--------4--------5--------7----|
  ---4--------1--------3--------4--------4--------4--------6--------8----|
  ---6--------2--------4--------6--------6--------4--------6--------8----|
  ---6--------2--------4--------6--------6--------2--------4--------6----|
  ---4--------0--------2--------4--------4-------------------------------|
   Guitar 2
  --------------------------------------------11----------------11-------|
  ------------------------------------------9----9------------9----9-----|
  -----------------------------------------------------------------------|
  -----------------------------------------------------------------------|
  -----------------------------------------------------------------------|
  -----------------------------------------------------------------------|

 

  ---------------0---------2-0-------------------------------------------|
  --4---------4-----------------4--------4-2--4--------------4-----------|
  --------4-6------------1-------------3----------------4-6-----------4--|
  ------6--------------2-------------4--------------6-8-------------6----|
  ----6--------------2-------------4--------------6---------------6------|
  --4--------------0-------------2--------------4---------------4--------|


  Guitar 1 + 2
  -----11---2----------------11---0--------------11---------------|
  ----9--9--------2---------9--9--------4-------9--9--7-----6-7---|
  --------------4---------------------6-------------------8-------|
  ------------4---------------------6-------------------8---------|
  ----------2---------------------4-------------------6-----------|
  ----------------------------------------------------------------|



  -4---------0--------4--------0--------4--------2--------4---------6------|
  -4---------0--------4--------0--------4--------4--------5---------7------|
  -4---------1--------4--------1--------4--------4--------6---------8------|
  -6---------2--------6--------2--------6--------4--------6---------8------|
  -6---------2--------6--------2--------6--------2--------4---------6------|
  -4---------0--------4--------0--------4----------------------------------|

  -------------------------------------------------------------------------|
  --------------------99-9-9-9-99-9-9-9-99-9-9-9-79-9-9-9--9-9-9-9-79-9----|
  --------------------------------------------------------9----------------|
  -------------------------------------------------------------------------|
  -------------------------------------------------------------------------|
  -------------------------------------------------------------------------|


Guitar 1  
  --------------------------------------------------------------------------|
  ----------4--------------0---------------4--------------4--------------4--|
  --------4---4----------1---1-----------3---3----------4---4----------4----|
  ------6--------------2---------------4-------------6---------------6------|
  ----6--------------2---------------4-------------6---------------6--------|
  --4--------------0---------------2-------------4---------------4----------|

Guitar 2  
  --11-----11-14-12-------14-12---11--------11---11-----------11------------|
  -------14-----------------------------------14--------12-14---------------|
  --------------------------------------------------------------------------|
  --------------------------------------------------------------------------|
  --------------------------------------------------------------------------|
  --------------------------------------------------------------------------|


  Guitar 1
  -----11----------------11-----------------11---------------------|
  --9-----9-----------9-----9-----------9------9-------------------|
  ----------11-----------------9------------------11---------------|
  -----------------------------------------------------------------|
  -----------------------------------------------------------------|
  -----------------------------------------------------------------|
  Guitar 2
  -----------------------------------------------------------------|
  -----------------2--4--------------4--5----------------6--7------|
  ---------------4-----------------6-------------------8-----------|
  -------------4-----------------6-------------------8-------------|
  -----------2-----------------4-------------------6---------------|
  -----------------------------------------------------------------|


  Guitar 1
  ---4--------0-------2---------------4--------0--------2---------------|
  ---4--------0-------2-------7-------4--------0--------2-------7-------|
  ---4--------1-------3-------8-------4--------1--------3-------8-------|
  ---6--------2-------4-------8-------6--------2--------4-------8-------|
  ---6--------2-------4-------6-------6--------2--------4-------6-------|
  ---4--------0-------2---------------4--------0--------2---------------|
  Guitar 2
  ----------------9--------------------------------9--------------------|
  ---9----11--12----------9---11--12--9----11--12-----------9---11--12--|
  --------------------11--------------------------------11--------------|
  ----------------------------------------------------------------------|
  ----------------------------------------------------------------------|
  ----------------------------------------------------------------------|


  Guitar 1
  ---4--------0--------2--------4--------4--------2--------4--------6-----|
  ---4--------0--------2--------4--------4--------4--------5--------7-----|
  ---4--------1--------3--------4--------4--------4--------6--------8-----|
  ---6--------2--------4--------6--------6--------4--------6--------8-----|
  ---6--------2--------4--------6--------6--------2--------4--------6-----|
  ---4--------0--------2--------4--------4--------------------------------|
  Guitar 2
  -------------------------11--------11------11----------------11---------|
  -----------------------9----9---9----9---9----9------------9----9-------|
  ---------------------------------11-------------------------------------|
  ------------------------------------------------------------------------|
  ------------------------------------------------------------------------|
  ------------------------------------------------------------------------|


  Guitar 1
  ---4--------0--------2--------4--------4--------2--------4--------6-----|
  ---4--------0--------2--------4--------4--------4--------5--------7-----|
  ---4--------1--------3--------4--------4--------4--------6--------8-----|
  ---6--------2--------4--------6--------6--------4--------6--------8-----|
  ---6--------2--------4--------6--------6--------2--------4--------6-----|
  ---4--------0--------2--------4--------4--------------------------------|
  Guitar 2
  -------11----------------11-----------------11----------------11--------|
  -----9----9------------9----9-------------9----9------------9----9------|
  ------------------------------------------------------------------------|
  ------------------------------------------------------------------------|
  ------------------------------------------------------------------------|
  ------------------------------------------------------------------------|


  Guitar 1
  ---4--------0--------2--------4--------4------------|
  ---4--------0--------2--------4--------4------------|
  ---4--------1--------3--------4--------4------------|
  ---6--------2--------4--------6--------6------------|
  ---6--------2--------4--------6--------6------------|
  ---4--------0--------2--------4--------4--------4---|
  Guitar 2
  -------11----------------11-----------------11------|
  -----9----9------------9----9-------------9----9----|
  ----------------------------------------------------|
  ----------------------------------------------------|
  ----------------------------------------------------|
  ----------------------------------------------------|
  End

Don't forget to rate if you can. Thanks

************************************

| /   slide up
| \   slide down
| h   hammer-on
| p   pull-off
| ~   vibrato
| +   harmonic
| x   Mute note
| b   Bend
| pb  Pre-bend
| br  Bend release
| pbr Pre-bend release
| brb Bend release bend

************************************
            
Submit corrections


        An End Once And For All lessons Hard to play? Try these video lessons and learn fast An End Once And For All lessons
        
↑ Back to top | Tablatures and chords for acoustic guitar and electric guitar, ukulele, drums are parodies/interpretations of the original songs. You may use it for private study, scholarship, research or language learning purposes only