Home » C » Clint Black »

Clint Black - Wherever You Go Tabs

Artists:  A B C D E F G H I J K L M N O P Q R S T U V W X Y Z # 

Wherever You Go Tabs

(ver. 1) Click to play this song!
Clint Black
 Rating:
4/5 (4 votes)
                Key:

b   =   bend                               h   =   hammer-on

p   =   pulloff                            pm  =   palm mute

br  =   bend & release                     x   =   dead note

/   =   slide up                           \   =   slide down

~   =   vibrato                            nh  =   Natural Harmonic

ah  =   Artificial Harmonic		   pbr =   pre-bend & release

bh  =   Bend and hold			   rb  =   Release bend

sb  =   Slight Bend
***********************************************************************

Intro:

E------------------------------------------------------------------
B------------------------------------------------------------------
G----------3---1-3-1-3~~-1-3-6~~------8---8---8h10-8-6sb-----------
D----------3---1-3-1-3~~-1-3-6~~----8-8---8---8----8-6sb-----------
A--------0-1-x---------------4~~--6---6-6---6----------------------
E--4~~~~-----------------------------------------------------------

E------------------------------------------------------------------
B------------------------------------------------------------------
G----------3---1-3-1-3~~-1-3-6~~------8---8---8h10-8-6-8-----------
D----------3---1-3-1-3~~-1-3-6~~----8-8---8---8----8-6-8-----------
A--------0-1-x---------------4~~--6---6-6---6----------------------
E--4~~~~-----------------------------------------------------------
            
Submit corrections

↑ Back to top | Tablatures and chords for acoustic guitar and electric guitar, ukulele, drums are parodies/interpretations of the original songs. You may use it for private study, scholarship, research or language learning purposes only