Home » C » Clint Black »

Clint Black - Summer's Comin' Tabs

Artists:  A B C D E F G H I J K L M N O P Q R S T U V W X Y Z # 

Summer's Comin' Tabs

(ver. 1) Click to play this song!
Clint Black
Clint Black  -  Summer's Comin' (lead)



*****************************************************************************************

b   =   bend                                            p   =   pulloff

\   =   slide down                                      ~   =   vibrato

bh  =   bend & hold                                     r   =   release bend

h   =   hammer-on                                       /   =   slide up

br  =   bend & release                                  x   =   dead note

*****************************************************************************************



INTRO

 
   A

E------------------------|
B------------------------|
G----2-------------------|
D-----3p2p0--0-----------|
A--3b------3b-3p2p0--0---|
E------------------3b----|



LEAD SOLO


   E                 A

E---------------------------------------------------------------------5-
B-----------------------------------------------------------------------
G----------------------2-2--2-2--------------------2-2--2-2-5p4p2-2-4b--
D--------------------5b---5b---5p2p0-2-----------5b---5b---------4------
A---------------3b-0------------------3p2p0-0-3-0-----------------------
E--12\-0-2-0-3-0---------------------------3----------------------------


   D                                           

E-------------------------------7h8p7---------------------------------------------
B--5~7-5~7-5-7bh-7-7r-p5-7-5-10b-----10-9-8-7-8-8p7--------7h10p7-----------------
G--5~7-5~7-5-7bh-7-7r-p5-7-5-----------------------9-7---9b------10-9-7---9-7-----
D-----------------------------------------------------9-7--------------9-7---9\7-5
A---------------------------------------------------------------------------------
E---------------------------------------------------------------------------------


          A                                              

E------------------------5----------------------------5----12-------------15~~-
B----------------------------------------------5-5-5h7-12bh--12r-10-13/15-15~~-
G--7-5---------------2-4b-5p4p2---------2-2-4/6--------------------------------
D-----7-5-7-----2-2/4----------5~~---2/4---------------------------------------
A----------0-2/4------------------0-0------------------------------------------
E------------------------------------------------------------------------------


   E                           A                                      E

E--0--9-10-0-6-7-6-5-4-0-3-2\-5------5------5-----------------------------|
B--0-11-12-0-8-9-8-7-5-0-4-3\-5------5------5-----------------------------|
G------------------------------8p7p5--8p7p5--8p7p5-7-5--------------------|
D-----------------------------------7------7------7---7p6p5---------------|
A----------------------------------------------------------7-5------------|
E-------------------------------------------------------------8b-5-3b-0---|



ENDING


    A                 D   A                

                                   rake
E----------------------------8b-8b-x---------------------------------------------12\---|
B----------------------------7b-7b--x----7b-5------------------------------------12\---|
G--7br-p5-5b-------------------------x---7b--7p5-7-5b-------------------------2--12\---|
D--------7--7p5-5-----0---------------x---------7----7p5-5b-------------------2--11\---|
A--------------7-7p5-0-3--0------------x----------------7--7\5p3-5-3b---------0--------|
E-----------------------3b--------------x-----------------------5----5-0-3~~~----------|


            
Submit corrections

↑ Back to top | Tablatures and chords for acoustic guitar and electric guitar, ukulele, drums are parodies/interpretations of the original songs. You may use it for private study, scholarship, research or language learning purposes only