Home » C » Clint Black »

Clint Black - No Time To Kill Tabs

Artists:  A B C D E F G H I J K L M N O P Q R S T U V W X Y Z # 

No Time To Kill Tabs

(ver. 1) Click to play this song!
Clint Black
NO TIME TO KILL
Clint Black

Capo I Fret

Intro


E-----------------------------0-----------0-----------------2--2---2------------12---
B-----------------------------0-----------0------------------------------------------
G-----------------------0h1---1-------2---2---2--------------------------------------
D------0----------------2--------0------------------0----(2)--------------0--2-------
A--0/2---2/0-----------------------2------------4---5-----------------0h2------------
E-------------3--b3--0---------------------------------------------------------------

E--(12)----------7--0-------0-------0------------------
B---------15/14--------2-------2/4-----4/2--0----------
G------------------------------------------------------
D------------------------------------------------------
A------------------------------------------------------
E------------------------------------------------------
            
Submit corrections

↑ Back to top | Tablatures and chords for acoustic guitar and electric guitar, ukulele, drums are parodies/interpretations of the original songs. You may use it for private study, scholarship, research or language learning purposes only