Home » C » Clint Black »

Clint Black - Nothin But Taillights Tabs

Artists:  A B C D E F G H I J K L M N O P Q R S T U V W X Y Z # 

Nothin But Taillights Tabs

(ver. 1) Click to play this song!
Clint Black
 Rating:
4/5 (4 votes)
                Nothin' But The Taillights intro:


e-3-------------------------------------------------------------------
b-3--3------------------3---3-3-3---3----3-----3-----3---3---3-5-3----
g----2pb(4)r(2)p0-2-0---0-0-0-0-0---0----4-----4-----4---4---4-5-4-4--
d--------------------3/5-5-5-5-5--/5--5-5-5-5-5-5-5-5-5-5-5-5-----5-5-
a---------------------------------------------------------------------
e---------------------------------------------------------------------
                                                      *two guitars
e--------------
b---------3----
g---------4----
d-------0--5-5-
a--0h1h2-------
e-3------------
              
            
Submit corrections

↑ Back to top | Tablatures and chords for acoustic guitar and electric guitar, ukulele, drums are parodies/interpretations of the original songs. You may use it for private study, scholarship, research or language learning purposes only