Home » C » Clint Black »

Clint Black - Been There Tabs

Artists:  A B C D E F G H I J K L M N O P Q R S T U V W X Y Z # 

Been There Tabs

(ver. 1) Click to play this song!
Clint Black
 Rating:
4/5 (4 votes)
                Been There 
        by Clint Black and Steve Wariner


-------------------
-------------------



Notes: Sorry about the incontinuity of this song, but I just wanted
to get the licks that I thought would be the most difficult to tab.  
As you can see, I've labeled the licks with time markings so they won't
be that difficult to identify.


Intro:
e-----5--9---9----|
B--------10--10---|
G-4\6-------------|
D-----------------| 
A-----------------|
E-----------------|

Solo:
e------12--12-------12----10-----------9-9----5-5----3-5--------------|
B-12bh--------12rbh---12r----12brp10---8-8br--5-5br--3-5-1h2----------|
G-----------------------------------------------------------2-----2---|
D-------------------------------------------------------------2-4-----| 
A---------------------------------------------------------------------|
E---------------------------------------------------------------------|

e-5-------------------------------------------9-10-12-----------------|
B-5-4-3-1-2---------------------------7\10-12---------12brp10-12------|
G-----------2-4-2-2-2-----------6-7-9---------------------------------|
D-------------4-2-1-0-------7-9---------------------------------------| 
A---------------------4h5\--------------------------------------------|
E---------------------------------------------------------------------|

lick 1:(2:30)
e-9--9---9--7--------------------------------------|
B-10-10--10-7-----\3-2-3\5--------------------\10--|
G-------------6-6-\4-2-4\6----9-\7-7-6\-4-2--------|
D-------------7-7-------------11\9-9-7\-5-2--------| 
A-------------------------------------------0------|
E--------------------------------------------------|


Lick 2:(3:07) 
e---------------3------|
B---------4p3---3------|
G-------------5---5p2--|
D----------------------| 
A-6gb------------------|
E----------------------|

Lick 3:(3:33)
e-----10-8h9----0--------------------------------------------------|
B---8--------10----------------------------1h2---------------------|
G-9---------------8\7-5h6---0-----------2------2---1-2-------------|
D-------------------------7-------0-------2------2-----4p2p0-------| 
A-----------------------------7-6---4----------------------------0-|
E------------------------------------------------------------3\4---|

Lick 4: (3:46)
e-12b-12-11-10-12-----------------|
B-----------------12b-10------10--|
G------------------------9-11-----|
D---------------------------------| 
A-----------Scat>----------------|
E---------------------------------|

Lick 5:(4:04)
e---5-5----5-5----5-8-10-12-11-10h12p10\9----------------------|
B-8b----8b-----8b-------------------------10---------10--------|
G-------------------------------------------9\7---------11-9---|
D-----------------------------------------------9\11-----------| 
A--------------------------------------------------------------|
E--------------------------------------------------------------|

Lick 6:(4:18)
e-5--------------|
B---8-5----------|
G-------7-5h6----|
D-------------7--| 
A----Scat>------|
E----------------|

Lick 7:(4:25)
e-10p8--8-----------------------------------------------|
B-----10---10p8-8---------------------------------------|
G--------------9---7p5-5--------------------------------|
D---------------------7---7p5-5-------------------------| Scat>
A----------------------------7--7-5\3-0-----0-3p0-----0-|
E---------------------------------------0-3-------3\5---|
            
Submit corrections

↑ Back to top | Tablatures and chords for acoustic guitar and electric guitar, ukulele, drums are parodies/interpretations of the original songs. You may use it for private study, scholarship, research or language learning purposes only