Home » C » Cliff Richard »

Cliff Richard - Rote Lippen Soll Man Kussen Tabs

Artists:  A B C D E F G H I J K L M N O P Q R S T U V W X Y Z # 

Rote Lippen Soll Man Kussen Tabs

(ver. 1) Click to play this song!
Cliff Richard
[Intro] (2x)
    C       +      +       +             +      +       +    F        +      +       +    G
E|------0---0------0---0------|------0---0------0---0------|------1---1------1---1------|-3----1---0--------|
B|----------------------------|----------------------------|----------------------------|---------------3---|
G|-------------------------0--|-------------------------0--|-------------------------2--|-------------------|
D|------2--------------2------|------2--------------2------|------3--------------3------|------0--------0---|
A|-3-----------3--------------|-3-----------3--------------|----------------------------|-------------------|
E|----------------------------|----------------------------|-1-----------1--------------|-3--------3--------|
        da- dam-   da- da- da,       da- dam-   da- da- da,       da- dam-   da- da- da,  ouh- ouh-ouh-ouh.

[Verse]
   C                  +                           G                  +
E|-0----0----0------------|----------------0----|-1----1----1----0-------|---------------------|
B|----------------3---1---|-----------3---------|--------------------3---|---------------------|
G|------------------------|---------------------|------------------------|---------------------|
D|------2---------2-------|------2---------2----|------0---------0-------|------0---------0----|
A|-3----------------------|-3-------------------|-----------2------------|-----------2---------|
E|-----------3------------|-----------3---------|-3----------------------|-3-------------------|
Ich sah ein schönes   Fräulein             im     letzten   Auto-    bus,                 Sie
Heut ist das schöne   Fräulein             schon  lange     meine    Braut                Und

                      +                           C             +       +
E|-1----1----1----0-------|-----------1---/5----|-3---/5----3--p1-------0---|---------------------|
B|--------------------3---|---------------------|---------------------------|---------------------|
G|------------------------|---------------------|---------------------------|----------------0----|
D|------0---------0-------|------0---------0----|------0------------2-------|------2---------2----|
A|-----------2------------|-----------2---------|-3---------3---------------|-3-------------------|
E|-3----------------------|-3-------------------|---------------------------|-----------3---------|
   hat mir so    gefallen,                drum   gab ich    ihr `nen    Kuss.                Doch es
   wenn die Eltern          es erlauben, dann    werden     wir getraut.                     Jeden

                      +                           F             +       +
E|-0----0----0------------|---------------------|-1----0----1--h3-------5---|----------------5--/-|
B|----------------3---1---|-----------1----1----|---------------------------|---------------------|
G|------------------------|---------------------|---------------------------|---------------------|
D|------2---------2-------|------2---------2----|------3------------3-------|------0---------0----|
A|-3----------------------|-3-------------------|---------------------------|---------------------|
E|-----------3------------|-----------3---------|-1---------1---------------|-5---------5---------|
   blieb nicht bei dem einen,              das    fiel mir gar nicht    ein                  Und
   Abend will sie      wissen,        ob das      auch so bleibt bei    mir,                 dass

   G         Dm          G                                   +          C         G
E|-7----3----5----1----|-3----0----1----3----|-0----3----0------------|-----------3---/5----|
B|---------------------|---------------------|---------------1--h3----|-1-------------------|
G|---------------------|---------------------|------------------------|---------------------|
D|------0---------0----|------0---------0----|------0------------0----|------2---------0----|
A|---------------------|---------------------|------------------------|-3-------------------|
E|-7---------5---------|-3---------3---------|-3---------3------------|-----------3---------|
   hinterher      hab    ich  gesagt,   sie    soll nicht böse          sein.     Rote
   ich sie   küsse       Tag und   Nacht, dann sage ich          zu     ihr:      Rote
 
[Chorus]
   C                  +                           G             +       +
E|-0----0----0------------|----------------0----|-1----1----1--p0-----------|---------------------|
B|-1----1----1----3---1---|-----------3----1----|-0----0----0-----------3---|---------------------|
G|----------------0---0---|-----------0---------|-----------------------0---|---------------------|
D|------2---------2-------|------2---------2----|------0------------0-------|------0---------0----|
A|-3----------------------|-3-------------------|-----------2---------------|-----------2---------|
E|-----------3------------|-----------3---------|-3-------------------------|-3-------------------|
   Lippen    soll man küssen,         denn zum    Küssen sind   sie     da

                      +                           C             +       +
E|-1----1----1---p0-------|-----------1---/5----|-3---/5----3--p1-------0---|---------------------|
B|-0----0----0----0---3---|-----------0----0----|---------------------------|---------------------|
G|--------------------0---|---------------------|---------------------------|----------------0----|
D|------0---------0-------|------0---------0----|------0------------2-------|------2---------2----|
A|-----------2------------|-----------2---------|-3---------3---------------|-3-------------------|
E|-3----------------------|-3-------------------|---------------------------|-----------3---------| 
   rote Lippen        sind dem        siebten     Himmel    ja so       nah,

                      +                           F             +       +
E|-0----0----0------------|---------------------|-1----0----1--h3-------5---|----------------5--/-|
B|-1----1----1----3---1---|-----------1----1----|---------------------------|---------------------|
G|----------------0---0---|---------------------|---------------------------|---------------------|
D|------2---------2-------|------2---------2----|------3------------3-------|------0---------0----|
A|-3----------------------|-3-------------------|---------------------------|---------------------|
E|-----------3------------|-----------3---------|-1---------1---------------|-5---------5---------|
   ich habe dich gesehen              und ich     habe      mir gedacht,                     so

   G         Dm          G                                   +          C
E|-7----3----5----1----|-3----0----1----3----|-0----3----0------------|---------------------|
B|---------------------|---------------------|---------------1--h3----|-1-------------------|
G|---------------------|---------------------|------------------------|---------------------|
D|------0---------0----|------0---------0----|------0------------0----|------2---------0----|
A|---------------------|---------------------|------------------------|-3-------------------|
E|-7---------5---------|-3---------3---------|-3---------3------------|-----------3---------|
   rote      Lippen      soll man  küssen,     Tag               und    Nacht.


            
Submit corrections

↑ Back to top | Tablatures and chords for acoustic guitar and electric guitar, ukulele, drums are parodies/interpretations of the original songs. You may use it for private study, scholarship, research or language learning purposes only