» » »

Cliff Richard - Devil Woman Bass

Artists:  A B C D E F G H I J K L M N O P Q R S T U V W X Y Z # 

Devil Woman Bass

(ver. 1) Click to play this song!
Cliff Richard
 Rating:
4/5 (4 votes)

 Devil Woman lessons Tabs too difficult? Try these video lessons and learn fast
 
                --------------------------------------------------------------------
--------------------------------------------------------------------


Tuning:  Dropped D - D A D G


VERSE 1        x3                      x3                       
|------||--------||------------||--------||----------||--------||--------|
|------||:-----3:||---.--..----||:-----3:||---.-..-3-||:-----3:||---.---3|
|---0-3||:5--30-:||5--5-033----||:5--30-:||5--5-030-3||:5--30-:||5--5-30-|
|------||--------||--------300-||--------||----------||--------||--------|

|-------------||----------------||-------------------------------|
|---.--..3----||:--------------:||------------.------------------|
|5--5-033-533-||:33----..--233-:||33-55-53-11-1-111-000----------|
|-------------||----00-2035-----||----------------------12\-0530-|

                         ------------  -----------
CHORUS                   1.            2.
||----------------------|------------||-----------||
||:.---3-------3-------3|-----------:||----------:||
||:5-30-5-55530-5-55530-|31-1-33-5--:||01-1-33-5-:||
||----------------------|---------0--||---------0-||

VERSE 2                               x3                    x3
|-------||--------||----------||--------||----------||--------||
|---.--3||:-----3:||---.-.----||:-----3:||---.--..--||:-----3:||
|5--030-||:5--30-:||5--5-0-034||:5--30-:||5--5-033--||:5--30-:||
|-------||--------||----------||--------||--------30||--------||

|-------5--------||----------------||-----------------------------|
|----5/7-753h5---||:--------------:||------...--------------------|
|5--5---------53-||:33-55-..--233-:||33-55-355-11-1-111-000-30----|
|----------------||-------2035-----||-------------------------530-|

CHORUS          
|---------------------|------------|------------------------------|
|.---3-------3-------3|------------|.---3-------3-------3---------|
|5-30-5--5030-5-55530-|0111-333-5-5|5-30-5-55530-5-55530-0111-333-|
|---------------------|----------0-|------------------------------|

SOLO                                                x3
|---------3---7-5--------------------------||----107--||75-------|
|-------35-------57---------355-------35---||:107----:||--753----|
|111-3/5----33-----3-1-1-3/5---33333/5--5--||:-------:||-----535-|
|----------------------------------------0-||---------||---------|

VERSE 3                .                                       
|------||--------||----5-5------||--------||--------|-----------|
|-----3||:-----3:||-------3-5---||:-----3:||---.---3|-----------|
|.--30-||:5--30-:||5--5------530||:5--30-:||5--5-30-|5-5530-5530|
|0-----||--------||-------------||--------||--------|-----------|

|-----------------|------------------|---------------------------------|
|---.-------------|---.------.-------|------------------35-------------|
|33-033-55-3h5--02|33-033-55-5--0233-|33-55-53-11-1-13/5--000----------|
|-------------03--|-----------03-----|------------------------12\-0530-|

OUTRO CHORUS
|--------------------------------|------------------------------------|
|.---3--..---3-------3-----------|----3-------3-------3----------3h5--|
|5-30-5-55-30-5-55530-3111-3335--|5530-5-55530-5-55530-0111-333h5-----|
|------------------------------0-|----------------------------------0-|

                       repeat until fade
||--------------------------------------||
||:----3-------3-------3------3-----5--:||
||:5530-5-55530-5-55530-0113/5-335/7---:||
||-----------------------------------0--||


| /  slide up
| \  slide down
| h  hammer-on
| p  pull-off
| ~  vibrato
| +  harmonic
| x  Mute note
===============================================================================
            
Submit corrections


        Devil Woman lessons Hard to play? Try these video lessons and learn fast Devil Woman lessons
        
↑ Back to top | Tablatures and chords for acoustic guitar and electric guitar, ukulele, drums are parodies/interpretations of the original songs. You may use it for private study, scholarship, research or language learning purposes only