Home » C » Clay Walker »

Clay Walker - Where Do I Fit In The Picture Tabs

Artists:  A B C D E F G H I J K L M N O P Q R S T U V W X Y Z # 

Where Do I Fit In The Picture Tabs

(ver. 1) Click to play this song!
Clay Walker
WHERE DO I FIT IN THE PICTURE
Clay Walker



Intro

E-----------0h2------------------------------------3--------
B--------3------3-----------2--------------0---0------0-----
G-----2-------------------2-----2--------0---0----------0---
D--0------------------------------------------------------0-
A---------------------0-------------------------------------
E------------------------------------3----------------------

E-----------0h2--------------------------------------3------
B--------3------3-----------2--------------0---0------------
G-----2-------------------2-----2--------0---0--------------
D--0--------------------------------------------------------
A---------------------0-------------------------------------
E------------------------------------3----------------------
            
Submit corrections

↑ Back to top | Tablatures and chords for acoustic guitar and electric guitar, ukulele, drums are parodies/interpretations of the original songs. You may use it for private study, scholarship, research or language learning purposes only