Home » C » Clay Walker »

Clay Walker - My Heart Will Never Know Tabs

Artists:  A B C D E F G H I J K L M N O P Q R S T U V W X Y Z # 

My Heart Will Never Know Tabs

(ver. 1) Click to play this song!
Clay Walker
E----------------------------------------------------
B---3---2h3------------------------------------------
G------------4-(let ring)----------------------------
D-----------------------------5---4h5p4h5----2-------
A----------------------------------------------------
E----------------------------------------------------


E----------------------------------------------------
B---3---2h3------------------------------------------
G------------4-(let ring)----------------------------
D-----------------------------5---4h5p4h5----2-0-----
A----------------------------------------------------
E----------------------------------------------------
            
Submit corrections

↑ Back to top | Tablatures and chords for acoustic guitar and electric guitar, ukulele, drums are parodies/interpretations of the original songs. You may use it for private study, scholarship, research or language learning purposes only