Home » C » Claude Sirois »

Claude Sirois - Imagine Tabs

Artists:  A B C D E F G H I J K L M N O P Q R S T U V W X Y Z # 

Imagine Tabs

(ver. 1) Click to play this song!
Claude Sirois
   Imagine écrit par Claude Sirois

   transcrit en tablature par Steve Morin pour guitare classique

|--------------------------------|--------------------------------|
|--------------------------0-----|------------------------------0-|
|--0-------0-------0-------------|--2-------2-------2-------2h3---|
|------2-------2-------2-------2-|------3-------3-------3---------|
|--3-------3-------3-------3-----|--------------------------------|
|--------------------------------|--1-------1-------1-------1-----|
 
 |       |       |       |        |       |       |       |        
|--------------------------------|--------------------------------|
|--------------------------0-----|------------------------------0-|
|--0-------0-------0-------------|--2-------2-------2-------2h3---|
|------2-------2-------2-------2-|------3-------3-------3---------|
|--3-------3-------3-------3-----|--------------------------------|
|--------------------------------|--1-------1-------1-------1-----|
 
 |       |       |       |        |       |       |       |        
|--------------------------------|--------------------------------|
|--------------------------0-----|--0---------------------------0-|
|----------0-------0-------------|------2-------------------2h3---|
|------2-------2-------2-------2-|--------------3-------3---------|
|--3---7---3---7---3-------3-----|--------------------------------|
|--8-----------------------------|--1-------1-------1-------1-----|
 
 |       |       |       |        |       |       |       |        
|--------------------------------|--------------------------------|
|--------------------------0-----|------------------------------0-|
|----------0-------0-------------|--2-----------------------2-3---|
|------2-------2-------2-------2-|------3-------3-------3---------|
|--3---7---3---7---3-------3-----|--------------------------------|
|--8-----------------------------|--1-------1-------1-------1-----|
 
 |       |       |       |        |       |       |       |        
|--------------------------------|--------------------------------|
|--------------------------0-----|--0---------------------------0-|
|----------0-------0-------------|------2-------------------2h3---|
|------2-------2-------2-------2-|--------------3-------3---------|
|--3---7---3---7---3-------3-----|--------------------------------|
|--8-----------------------------|--1-------1-------1-------1-----|
 
 |       |       |       |        |       |       |       |        
|--------------------------------|--------------------------------|
|--------------------------0-----|--------------------------------|
|----------0-------0-------------|--2-----------------------------|
|------2-------2-------2-------2-|------3-------3-------3-------3-|
|--3---7---3---7---3-------3-----|--------------------------------|
|--8-----------------------------|--1-------1-------1-------1-----|
 
 |       |       |       |        |       |       |       |        
|--------------------------0-----|--------------------------------|
|----------1-------1-------------|--3-----------------------------|
|------2-------2-------2-------2-|------2-------2-------2-------2-|
|------7-------7-----------------|--0---7---0---------------------|
|--------------------------------|------------------3-------3-----|
|--1-------1-------0-------0-----|--------------------------------|
 
 |       |       |       |        |       |       |       |        
|--------------------------------|----------------0---3-------0---|
|--0---0-------0-------1---------|--3---------------------------3-|
|--0---0-------0-------0---------|--0-----------------------------|
|--0---0-------0-------2---------|--0-----------------------------|
|--2---2-------2-------3---------|--2-----------------------------|
|--3---3-------3-----------------|--3-----------------------------|
 
 |       |       |       |        |       |       |       |        
|--------------------------------|--------------------------------|
|--------------1---0---1h0-------|--1---------------0-------3-----|
|----------2---------------2---0-|------0-------0-------1-------1-|
|------3-------------------------|--------------------------------|
|--------------------------------|--3-------3---------------------|
|--1-------1-------3-------------|------------------0-------0-----|
 
 |       |       |       |        |       |       |       |        
|--------------------------------|--------------------------------|
|--------------1---0---1h0-----0-|------------------0-------3-----|
|----------2---------------2-----|------0-------0-------0-------0-|
|------3-------------------------|--2-----------------------------|
|--------------------------------|--3-------3---------------------|
|--1-------1-------3-------------|------------------0-------0-----|
 
 |       |       |       |        |       |       |       |        
|--------------------------------|--------------------------------|
|--------------1---0---1h0-----0-|--1---------------0-------3-----|
|----------2---------------2-----|------0-------0-------1-------1-|
|------3-------------------------|--------------------------------|
|--------------------------------|--3-------3---------------------|
|--1-------1-------3-------------|------------------0-------0-----|
 
 |       |       |       |        |       |       |       Fin      
|----------------------0---------|--------------------------------|
|----------1---1---3-----3-1h--3-|--3---1---1---------------------|
|----------2-------0-------------|--0-------0---------------------|
|------3---3-------0-------------|--2-------2---------------------|
|--------------------------------|--3-------3---------------------|
|--1-------1-------3-------------|--------------------------------|

 
            
Submit corrections

↑ Back to top | Tablatures and chords for acoustic guitar and electric guitar, ukulele, drums are parodies/interpretations of the original songs. You may use it for private study, scholarship, research or language learning purposes only