Home » C » Classified »

Classified - Mhoule Tabs

Artists:  A B C D E F G H I J K L M N O P Q R S T U V W X Y Z # 

Mhoule Tabs

(ver. 1) Click to play this song!
Classified
Guitare: A
Tuning: Standard

e|---------------------------------------------------------------------------|
B|---------------------------------------------------------------------------|
G|---------------------------------------------------------------------------|
D|---------2-----------2-----------2---5--x--4-------------------------------|
A|---------2-----------2-----------2---5--x--4-------------------------------|
E|-0-0-0-0-0---0-0-0-0-0---0-0-0-0-0---3--x--2-------------------------------|

e|---------------------------------------------------------------------------|
B|---------------------------------------------------------------------------|
G|---------------------------------------------------------------------------|
D|---------2-----------2-----------2---4--5--4-------------------------------|
A|---------2-----------2-----------2---4--5--4-------------------------------|
E|-0-0-0-0-0---0-0-0-0-0---0-0-0-0-0---2--3--2-------------------------------|

e|---------------------------------------------------------------------------|
B|---------------------------------------------------------------------------|
G|---------------------------------------------------------------------------|
D|---------2-----------2-----------2---5--x--4-------------------------------|
A|---------2-----------2-----------2---5--x--4-------------------------------|
E|-0-0-0-0-0---0-0-0-0-0---0-0-0-0-0---3--x--2-------------------------------|

e|---------------------------------------------------------------------------|
B|---------------------------------------------------------------------------|
G|---------------------------------------------------------------------------|
D|-5--x--5--x-------4--x--4--x---------4//5--4-------------------------------|
A|-5--x--5--x-------4--x--4--x---------4//5--4-------------------------------|
E|-3--3--3--3-------2--2--2--2---------2//3--2-------------------------------|X4

Guitare: B
Tuning: Startdard
e|-9~---12--9h11h12----------------------------------------------------------------------|
B|-------------------12~-----9--12p11p9---------------------9x---------------------------|
G|--------------------------------------11---11b------------9x---------------------------|
D|-----------------------------------------9-----9--11~----------------------------------|
A|---------------------------------------------------------------------------------------|
E|---------------------------------------------------------------------------------------|
            
Submit corrections

↑ Back to top | Tablatures and chords for acoustic guitar and electric guitar, ukulele, drums are parodies/interpretations of the original songs. You may use it for private study, scholarship, research or language learning purposes only