Home » C » Classified »

Classified - Heavy Artillery Bass

Artists:  A B C D E F G H I J K L M N O P Q R S T U V W X Y Z # 

Heavy Artillery Bass

(ver. 1) Click to play this song!
Classified
Classified is a reggae/underground rap artist.  You can find the lyrics to this song at:


---------------------------------------------------------------------------
---------------------------------------------------------------------------


Tuning: Standard

Riff 1
G|----------------------------------------------------------------------|
D|----------------------------------------------------------------------|
A|----53---5---53---55---53---5-----------------------------------------|
E|-5----5---5----5----5----5---5----------------------------------------|

Riff 2
G|----------------------------------------------------------------------|
D|----------------------------------------------------------------------|
A|--77-77-77------------------------------------------------------------|
E|-5--5--4--32----------------------------------------------------------|

There are some variations during the song but you should be able to figure them out
pretty easily using these as a base. 

===============================================================================
            
Submit corrections

↑ Back to top | Tablatures and chords for acoustic guitar and electric guitar, ukulele, drums are parodies/interpretations of the original songs. You may use it for private study, scholarship, research or language learning purposes only