» » »

Clannad - Megu Meru Tabs

Artists:  A B C D E F G H I J K L M N O P Q R S T U V W X Y Z # 

Megu Meru Tabs

(ver. 1) Click to play this song!
Clannad
 Rating:
4/5 (21 vote)

 Megu Meru  lessons Tabs too difficult? Try these video lessons and learn fast
 
                e|---------5-----------------------------------5---|
B|-3--2-3----2---2--3-2-0---0-0--------3--2-3----2-|
G|------------------------2------------------------|
D|-------------------------------------------------|
A|-2---------0--------------------0----2---------0-|
E|------------------3------------------------------|

e|------------16-14-12--------5----------------------------|
B|--------0-------------3--2-3----2----2--3-2-0---0-0------|
G|-2--2-1---------------------------------------2----------|
D|------2--------------------------------------------------|
A|----------------------2---------0---------------------0--|
E|----------------------------------------3----------------|

e|---------5------0--0-1--3-5--6-5-5-----|
B|-3--2-3----2--3---------------------6--|
G|---------------------------------------|
D|--------------------------0------------|
A|-2---------0---------1-----------------|
E|---------------------------------------|

e|5--3--8-----5--3--10-8----------------------------|
B|--------6-------------------------8-9-8-----4-4/6-|
G|-----------------------10--10-10--------8-5-------|
D|0-------------------------------------------------|
A|------0-------------------------------6-----6-6/8-|
E|------------3------------------8------------------|

e|-2--3-5-0--10------5-0--------2--3-2---|
B|-3------1-----8--8---1--3-3---3------3-|
G|-2------0-----0------0----2---2------2-|
D|-0------------------------0---0--------|
A|--------0------------0-----------------|
E|---------------------------------------|

e|-8--7--------5----2-2--2--3-5-0--10------5--------|
B|-7----8--7-8---5----3--3------1-----8--8---5--3-3-|
G|------0--------6----0--2------0-----0------6----2-|
D|-0------------------0--0------------------------0-|
A|---------------4--------------0------------4------|
E|------0-----------------------------0-------------|

e|-2--3-2---8--7--------5---------33---|
B|-3------3-7----8--7-8---5---5-3-33---|
G|-2------2------0--------6---6-2------|
D|-0--------0-------------------0------|
A|------------------------4---4--------|
E|---------------0---------------------|

e|------33--------33--------33--2-33--|
B|--5-3-33----3-3-33----3-3-33--3-55--|
G|--6-2-------0-3-------3-0-----------|
D|----0-------------------------------|
A|--4---------3-1-------1-3-----------|
E|------------------------------------|
            
Submit corrections


        Megu Meru  lessons Hard to play? Try these video lessons and learn fast Megu Meru  lessons
        
↑ Back to top | Tablatures and chords for acoustic guitar and electric guitar, ukulele, drums are parodies/interpretations of the original songs. You may use it for private study, scholarship, research or language learning purposes only