» » »

Clannad - Dango Daikazoku Tabs

Artists:  A B C D E F G H I J K L M N O P Q R S T U V W X Y Z # 

Dango Daikazoku Tabs

(ver. 1) Click to play this song!
Clannad
 Rating:
4.3/5 (25 votes)

 Dango Daikazoku lessons Tabs too difficult? Try these video lessons and learn fast
 
                [Intro]
e|-----4--4--6--6--8--4---------4--4--6--4-------|
B|-6-4-------------------4--6-4------------------|
G|-----------------------------------------------|
D|-----------------------------------------------|
A|-----------------------------------------------|
E|-----------------------------------------------|

[Verse 1]
e|-----4--4--6--6--8--4---------4--4--6--6--8--6-|
B|-6-4-------------------4--6-4------------------|
G|-----------------------------------------------|
D|-----------------------------------------------|
A|-----------------------------------------------|
E|-----------------------------------------------|

e|-----4--4--6--6--8--4---------4--4--6--4-------|
B|-6-4-------------------4--6-4------------------|
G|-----------------------------------------------|
D|-----------------------------------------------|
A|-----------------------------------------------|
E|-----------------------------------------------|

[Verse 2]
e|-9-8--------4--6-----4--------4--9-8--------4--6-----4-|
B|------9--6--------6-----4--6----------9--6--------6—---|
G|-------------------------------------------------------|
D|-------------------------------------------------------|
A|-------------------------------------------------------|
E|-------------------------------------------------------|

e|-9-8--------4--6-----4--------4-----4------------------|
B|------9--6--------6-----4--6-----4----------4---4--—---|
G|--------------------------------------6--6----6---6----|
D|-------------------------------------------------------|
A|-------------------------------------------------------|
E|-------------------------------------------------------|

[Chorus] x2
e|--------4---6-6---4----4-6-8--11---8------4--6-6--4--------11-8-|
B|--4--6--------------6-----------11----9------------—6—11-9------|
G|----------------------------------------8-----------------------|
D|----------------------------------------------------------------|
A|----------------------------------------------------------------|
E|----------------------------------------------------------------|

e|--------4---6-6---4----4-6-8--11---8--------------------|
B|--4--6--------------6-----------11----9-8--6---8-9-8-—9-|
G|--------------------------------------------------------|
D|--------------------------------------------------------|
A|--------------------------------------------------------|
E|--------------------------------------------------------|            
Submit corrections


        Dango Daikazoku lessons Hard to play? Try these video lessons and learn fast Dango Daikazoku lessons
        
↑ Back to top | Tablatures and chords for acoustic guitar and electric guitar, ukulele, drums are parodies/interpretations of the original songs. You may use it for private study, scholarship, research or language learning purposes only