» » »

Citizen Cope - Sideways Tabs

Artists:  A B C D E F G H I J K L M N O P Q R S T U V W X Y Z # 

Sideways Tabs

(ver. 3) Click to play this song!
Citizen Cope
 Rating:
4/5 (7 votes)

 Sideways lessons Tabs too difficult? Try these video lessons and learn fast
 
                



was way off, especially on the bends.  where i put in bends, you will have to listen and
judge yourself how much to bend.  sometimes santana bends just barely, half step, whole
step and sometime even one and a half.  so just listen and get into the grove.


|--12-------------------------|
|-------------------------12--|
|-----14^-14-12-14-12--14-----|
|-----------------------------|
|-----------------------------|
|-----------------------------|


|-----12-15^-12-15^-^---------|
|--15-------------------------|
|-----------------------------|
|-----------------------------|
|-----------------------------|
|-----------------------------|


|-12-----------------------|
|----12p10-10------10------|
|-------------12-9----9-12-|
|--------------------------|
|--------------------------|
|--------------------------|

|----------------------|
|----------------------|
|-9--------------------|
|---12p10p9\7----7-----|
|-------------10---10--|
|----------------------|


Verse:

You know it ain't easy
|----------------------|
|----------------------|
|--14^-14-12----14-12--|
|------------14--------|
|----------------------|
|----------------------|

For these thoughts here to leave me
|---------------------|
|---------------------|
|--14^-14-12--14^-12--|
|---------------------|
|---------------------|
|---------------------|

There are no words to describe it
|----------------------|
|----------------------|
|--14^-14-12----14-12--|
|------------14--------|
|----------------------|
|----------------------|

In French or in English
|-------------------------------------|
|-------------------------------------|
|-----12-14^-15^-14-12----14^-14--14--|
|--14------------------14-------------|
|-------------------------------------|
|-------------------------------------|

Cause diamonds they fade
|----------------|
|--15^~----------|
|----------------|
|----------------|
|----------------|
|----------------|

And flowers they bloom
|------15------------|
|--15^----15^-^------|
|--------------------|
|--------------------|
|--------------------|
|--------------------|

And I'm telling you
|-17^-17-15----15-17-18p17p15---|
|-----------17------------------|
|-------------------------------|
|-------------------------------|
|-------------------------------|
|-------------------------------|

Chorus: 0:50

That these feelings won't go away
|--------|
|--------|
|--14^---|
|--------|
|--------|
|--------|

They've been knockin me sideways
|--------------|
|--------------|
|--14^-^-^-----|
|--------------|
|--------------|
|--------------|

They've been knockin me out litely
|----12-----------------------|
|---12---15-----12------------|
|--14^------14^----14-12-h14--|
|-----------------------------|
|-----------------------------|
|-----------------------------|

Whenever you come around me
|------------------------|
|-12h13-12---------------|
|----------12------------|
|-------------12---------|
|----------------12------|
|-------------------15\--|

That these feelings won't go away
|--------|
|--15^~--|
|--------|
|--------|
|--------|
|--------|

They've been knockin me sideways
|--------|
|--15^~--|
|--------|
|--------|
|--------|
|--------|

I keep thinking in a moment that
|-17^-17-15----15-17-18p17p15---|
|-----------17------------------|
|-------------------------------|
|-------------------------------|
|-------------------------------|
|-------------------------------|

Time will take them away
|-------------------|
|--12h13~-12h13p12~-|
|-------------------|
|-------------------|
|-------------------|
|-------------------|

But these feelings won't go away
|--------------------------|
|--------------------------|
|--14^-14-12-14-12-12--12--|
|--------------------------|
|--------------------------|
|--------------------------|

These feelings won't go away
|------------------------------------------------------------|
|------------------------------------------------------------|
|-----12-14^--14^--14^--14^-14^-14-12~-----------------------|
|--14----------------------------------14p12-----------------|
|--------------------------------------------14-12----12-----|
|--------------------------------------------------15----15--|

Verse: 1:45
You know it ain't easy
|---------------------------|
|---------------------------|
|--14^-14-12----14-12~-14^--|
|------------14-------------|
|---------------------------|
|---------------------------|

For these thoughts here to leave me
|--------------------|
|--------------------|
|--14^-14-12--14-12--|
|--------------------|
|--------------------|
|--------------------|

There are no words to describe it
|----------------------|
|----------------------|
|--14^-14-12----14-12~-|
|------------14--------|
|----------------------|
|----------------------|

In French or in English
|-----------------------|
|----------------12-----|
|------14----14^----14~-|
|---14----14------------|
|-----------------------|
|-----------------------|

Cause diamonds they fade
|------15------------|
|--15^----15^-^------|
|--------------------|
|--------------------|
|--------------------|
|--------------------|

And flowers they bloom
|-17^-17-15----15-17-18p17p15---|
|-----------17------------------|
|-------------------------------|
|-------------------------------|
|-------------------------------|
|-------------------------------|

And I'm telling you
|---------------------|
|-13p12---------------|
|-------12------------|
|----------12---------|
|-------------12------|
|----------------15\--|

Chorus: 2:15

That these feelings won't go away
|--------|
|--------|
|--14^---|
|--------|
|--------|
|--------|

They've been knockin me sideways
|--------------|
|--------------|
|--14^-^-^-----|
|--------------|
|--------------|
|--------------|

They've been knockin me out litely
|----12--------------------|
|---12---15-----12---------|
|--14^------14^----14-12---|
|--------------------------|
|--------------------------|
|--------------------------|

Whenever you come around me
|------------------------|
|-12h13-12---------------|
|----------12------------|
|-------------12---------|
|----------------12------|
|-------------------15\--|

That these feelings won't go away
|----------------|
|--15^~----------|
|----------------|
|----------------|
|----------------|
|----------------|

They've been knockin me sideways
|------15------------|
|--15^----15^-^------|
|--------------------|
|--------------------|
|--------------------|
|--------------------|

I keep thinking in a moment that
|-17^-17-15----15-17-18p17p15---|
|-----------17------------------|
|-------------------------------|
|-------------------------------|
|-------------------------------|
|-------------------------------|

Time will take them away
|-------------------|
|--12h13~-12h13p12~-|
|-------------------|
|-------------------|
|-------------------|
|-------------------|

But these feelings won't go away
|---------------------------------------------------|
|---------------------------------------------------|
|--------12-14--12-14--12-14--12---14-12-14--12-14--|
|--12-14--------------------------------------------|
|---------------------------------------------------|
|---------------------------------------------------|

They've been knocking me sideways
|-----------------------------------------------------------|
|-----------------------------------------------------------|
|-----12^-----12^-----12^----------12^-----12^-----12^------|
|--14------14------14------14---14------14------14------14--|
|-----------------------------------------------------------|
|-----------------------------------------------------------|

I keep thinking in a moment that
|-------------------------------------------------|
|--15---------------------------------------------|
|-----14^-14-12-14-12-14^14p12----14~-12h14p12----|
|------------------------------14-------------14--|
|-------------------------------------------------|
|-------------------------------------------------|

Time will take them away
|-------------------|
|--12h13~-12h13p12~-|
|-------------------|
|-------------------|
|-------------------|
|-------------------|

But these feelings won't go away
|----------------|
|----------------|
|--14^-----------|
|----------------|
|----------------|
|----------------|

These feelings won't go away
|----12-----------------------------|
|---12---15-------------------------|
|--14^------14^-14-12-14-12-12~-14~-|
|-----------------------------------|
|-----------------------------------|
|-----------------------------------|

Bridge: 3:23

Well diamonds they fade
|----------------|
|--15^~----------|
|----------------|
|----------------|
|----------------|
|----------------|

Well flowers they bloom
|------15------------|
|--15^----15^-^------|
|--------------------|
|--------------------|
|--------------------|
|--------------------|

Well I'm telling you 
|----12-------------------------------------|
|---12---15-14-13-12-13-12-13p12\10-----10--|
|--14^------------------------------12~-----|
|-------------------------------------------|
|-------------------------------------------|
|-------------------------------------------|

Well I'm telling you
|--------------------------------12~-|
|--------------------------12-15-----|
|--------------------12-14-----------|
|--------------12-14-----------------|
|--------12-14-----------------------|
|--12-15-----------------------------|

Well diamonds they fade
|-----12----12----12----12----12----12----12------------------------------|
|-----12----12----12----12----12----12----12------------------------------|
|--14^---14^---14^---14^---14^---14^---14^---14^-12-12-14^-12-12-12~-14^--|
|-------------------------------------------------------------------------|
|-------------------------------------------------------------------------|
|-------------------------------------------------------------------------|

Well flowers they bloom
|-----12----12----12----12----12----12----12--------------------------|
|-----12----12----12----12----12----12----12--------------------------|
|--14^---14^---14^---14^---14^---14^---14^---14^-12-12-14^-12-12-12~--|
|---------------------------------------------------------------------|
|---------------------------------------------------------------------|
|---------------------------------------------------------------------|

Well I'm telling you
|--17^-17-15~-|
|-------------|
|-------------|
|-------------|
|-------------|
|-------------|

Well I'm telling you
|--17^-17-15~-|
|-------------|
|-------------|
|-------------|
|-------------|
|-------------|

Chorus: 3:57

(Play while singing) These feelings won't go away
|--15--15-15--12-----15^-12~-----|
|----------------15----------15--|
|--------------------------------|
|--------------------------------|
|--------------------------------|
|--------------------------------|

(Play while singing) They've been knocking me sideways
|--15--15-15--12-----15^------12--|
|----------------15------15~------|
|---------------------------------|
|---------------------------------|
|---------------------------------|
|---------------------------------|

(Play while singing) They've been knocking me out litely
|--15-15-15-15-15-15-15--------|
|-----------------------16-16~-|
|------------------------------|
|------------------------------|
|------------------------------|
|------------------------------|

repeat for chorus

for the rest, i just kinda do my own thing and go off for a little bit. enjoy

legend

h  hit on
p  pull off
^  bend
/  slide to higher note
\  slide to lower note
~  tremelo

Well thats it.  Enjoy!  if you think mine sucks or whatever...just do as i did,
dont complain and do one yourself.
            
Submit corrections


        Sideways lessons Hard to play? Try these video lessons and learn fast Sideways lessons
        
↑ Back to top | Tablatures and chords for acoustic guitar and electric guitar, ukulele, drums are parodies/interpretations of the original songs. You may use it for private study, scholarship, research or language learning purposes only