» » »

Citizen Cope - Salvation Tabs

Artists:  A B C D E F G H I J K L M N O P Q R S T U V W X Y Z # 

Salvation Tabs

(ver. 1) Click to play this song!
Citizen Cope
 Rating:
3.6/5 (7 votes)

 Salvation lessons Tabs too difficult? Try these video lessons and learn fast
 
                -------------------------------------------------------------------------------

                             SONG NAME - Band Name

-------------------------------------------------------------------------------




Tuning: Standard

There are only 6 chords in this song, and you can listen to it for the strum pattern, 
he basically hits the bass note ( E or A depending on the chord) first and then strums the 

INTRO

e|---------------------------------------------------------------------------|
B|----------------------------------------------------------------3--3--3----|
G|----------------------5--------5--------5------5----------5-----5--5--5----|
D|----------------------------------------------------------------4--4--4----|
A|------------------5-------5---------5-------5---------5---------5--5--5----|
E|---------------------------------------------------------------------------| Yo......

VERSE

The verse is all the same throughout the whole song, Just two chords...Its the same 
the chorus as well

e|-----------0--0--0--0--0---------------------------------------------------|
B|-----------0--0--0--0--0---------------3---3--3--3--3----------------------|
G|-----------0--0--0--0--0---------------5---5--5--5--5----------------------|
D|-----------2--2--2--2--2---------------4---4--4--4--4----------------------|
A|-----------2--2--2--2--2----------5----------------------------------------|
E|---0-----------------------------------------------------------------------|

Say, Judas came up to D.C, He'd been down in Georgia for a while...

CHORUS
Same strum pattern, only using these chords. You hit them each about three times, i'm 
too lazy to tab it out like that. Repeat Twice.

e|-----0---------------------------------------------------------------------|
B|-----0---------1--------0--------------------------------------------------|
G|-----0---------3--------2--------------------------------------------------|
D|-----2---------2--------1--------------------------------------------------|
A|-----2------3---------2----------------------------------------------------|
E|-0-------------------------------------------------------------------------|

Salvation....


BRIDGE
I could be wrong on this part, but i think its just a open "C" chord using your thumb to 
a base line

e|---------------------------------------------------------------------------|
B|------1-----1-----1-----1--------------------------------------------------|
G|------0-----0-----0-----0--------------------------------------------------|
D|------2-----2-----2-----2--------------------------------------------------|
A|------3-----3-----3-----3--------------------------------------------------|
E|------3--/--2--\--3--/--2----ect..-----------------------------------------|

Salvation, I'm callin...Yea yea yea.  Put the gun down....

Thats more or less it.  You just finish with the verse structure like most of the song.  
quite sure about the bridge but its close.  Simple song but good nonetheless.

| /  slide up

| \  slide down

| h  hammer-on

| p  pull-off

| ~  vibrato

| +  harmonic

| x  Mute note

==============================================================================
            
Submit corrections


        Salvation lessons Hard to play? Try these video lessons and learn fast Salvation lessons
        
↑ Back to top | Tablatures and chords for acoustic guitar and electric guitar, ukulele, drums are parodies/interpretations of the original songs. You may use it for private study, scholarship, research or language learning purposes only