» » »

Citizen Cope - Pablo Picasso Tabs

Artists:  A B C D E F G H I J K L M N O P Q R S T U V W X Y Z # 

Pablo Picasso Tabs

(ver. 1) Click to play this song!
Citizen Cope
 Rating:
4.4/5 (7 votes)

 Pablo Picasso lessons Tabs too difficult? Try these video lessons and learn fast
 
                -------------------------------------------------------------------------------
-------------------------------------------------------------------------------

Tuning: Standard

This song has guitar and a little synth/keyboard that can easily
be played on guitar so I tabbed up both.

Keyboard main line:
e|---8---9---8------8---9---8------8---9---8-----8---9---8---|
B|-9---9---9------9---9---9------8---8---8-----8---8---8-----|
G|-----------------------------------------------------------|
D|-----------------------------------------------------------|
A|-----------------------------------------------------------|
E|-----------------------------------------------------------|

Guitar main line:
e|----------------------------------------------|
B|----------------------------------------------|
G|----------------------------------------------|
D|-10-10-10-10--10-10-10-10--8-8-8-8--8-8-8-8---|
A|-11-11-11-11--11-11-11-11--6-6-6-6--7-7-7-7---|
E|----------------------------------------------|

Keyboard (layer 2) verse:
e|-8-------8------------------------|
B|---11-9----11-9---11-9-8--11-9-8--|
G|----------------------------------|
D|----------------------------------|
A|----------------------------------|
E|----------------------------------|

Keyboard (layer 2) chorus:
e|-8---------8---------------------------------------------------------------|
B|---11-9-11---9-11-9--11-9-8-9--11-9-8-9------------------------------------|
G|---------------------------------------------------------------------------|
D|---------------------------------------------------------------------------|
A|---------------------------------------------------------------------------|
E|---------------------------------------------------------------------------|

Guitar Bridge (My Way Home)
e|----------------------------|
B|----------------------------|
G|-6--6--6-6-11--11--10--10---|
D|-7---------12------12-------|
A|----------------------------|
E|----------------------------|


| /  slide up
| \  slide down
| h  hammer-on
| p  pull-off
| ~  vibrato
| +  harmonic
| x  Mute note
===============================================================================
            
Submit corrections


        Pablo Picasso lessons Hard to play? Try these video lessons and learn fast Pablo Picasso lessons
        
↑ Back to top | Tablatures and chords for acoustic guitar and electric guitar, ukulele, drums are parodies/interpretations of the original songs. You may use it for private study, scholarship, research or language learning purposes only