» » »

Citizen Cope - Let The Drummer Kick Tabs

Artists:  A B C D E F G H I J K L M N O P Q R S T U V W X Y Z # 

Let The Drummer Kick Tabs

(ver. 2) Click to play this song!
Citizen Cope
 Rating:
3.8/5 (5 votes)

 Let The Drummer Kick lessons Tabs too difficult? Try these video lessons and learn fast
 
                -------------------------------------------------------------------------------

Tuning: Standard (EADGBe)


Originally piano, tabbed for guitar. Very easy, cool sounding song.

|-8-~---------8--8--8--8-~---------8--8--8--|
|-10~---------10-10-10-10~---------10-10-10-|
|-10~---------10-10-10-9-~---------9--9--9--|
|-------------------------------------------|
|-------------------------------------------|
|-------------------------------------------|

|-7-10--10--7-8--8-|
|------------------|
|------------------|
|------------------|
|------------------|
|------------------|
            
Submit corrections


        Let The Drummer Kick lessons Hard to play? Try these video lessons and learn fast Let The Drummer Kick lessons
        
↑ Back to top | Tablatures and chords for acoustic guitar and electric guitar, ukulele, drums are parodies/interpretations of the original songs. You may use it for private study, scholarship, research or language learning purposes only