» » »

Citizen Cope - Bullet And A Target Tabs

Artists:  A B C D E F G H I J K L M N O P Q R S T U V W X Y Z # 

Bullet And A Target Tabs

(ver. 2) Click to play this song!
Citizen Cope
 Rating:
4/5 (13 votes)

 Bullet And A Target lessons Tabs too difficult? Try these video lessons and learn fast
 
                -------------------------------------------------------------------------------
                         Citizen Cope - Bullet and a Target
-------------------------------------------------------------------------------

Tuning: E A D G B e






e|---------------------------------------------------------------------------|
B|---------------------------------------------------------------------------|
G|-------------------------------------(3-3-3-3)-----------------------------|
D|--------------------------------------1-1-1-1---0-0-0--0-0(3)0-(0)-(0)(0)--|
A|-------------------------------(0)----3-3-3-3---0-0-0--1-1-1-1-(1)-(0)(0)--|
E|-0-0-0-3-3-3-3--0-0-0-1-1-1-1---0-0-0----------(0)-------------------------|

Updated on 11. Dec. 10

Chords: // G(m) // F // C(m) // B //

Notice


Played this song by myself.


Solced
            
Submit corrections


        Bullet And A Target lessons Hard to play? Try these video lessons and learn fast Bullet And A Target lessons
        
↑ Back to top | Tablatures and chords for acoustic guitar and electric guitar, ukulele, drums are parodies/interpretations of the original songs. You may use it for private study, scholarship, research or language learning purposes only