» » »

Circa Waves - T-Shirt Weather Tabs

Artists:  A B C D E F G H I J K L M N O P Q R S T U V W X Y Z # 

T-Shirt Weather Tabs

(ver. 1) Click to play this song!
Circa Waves
 Rating:
4.3/5 (23 votes)

 T-Shirt Weather  lessons Tabs too difficult? Try these video lessons and learn fast
 
                
Guitar 1:
e|---------------------------------------------------------------------------|
B|----7--7--7-7---x----9-9--x--9-9-9-9---------------------------------------|
G|----8--8--8-8---x----8-8--x--8-8-8-8---------------------------------------|x9
D|----9--9--9-9---x----9-9--x--9-9-9-9---------------------------------------|
A|---------------------------------------------------------------------------|
E|---------------------------------------------------------------------------|


Guitar 2(Comes in after first guitar has played riff twice):
e|--------------7-7---7-7-7-7------------------------------------------------|
B|---7--9--7-9------9--------------------------------------------------------|
G|---------------------------------------------------------------------------|x4
D|---------------------------------------------------------------------------|
A|---------------------------------------------------------------------------|
E|---------------------------------------------------------------------------|

e|-------------7-------------------------------------------------------------|
B|---7--9-7-9----------------------------------------------------------------|
G|---------------8b----------------------------------------------------------|
D|---------------------------------------------------------------------------|
A|---------------------------------------------------------------------------|
E|---------------------------------------------------------------------------|

e|-----------7-7---7-7-7-7------------------7--------------------------------|
B|---7-9-7-9-----9-----------------7--9-7-9----------------------------------|
G|--------------------------------------------8b-----------------------------|
D|---------------------------------------------------------------------------|
A|---------------------------------------------------------------------------|
E|---------------------------------------------------------------------------|            
Submit corrections


        T-Shirt Weather  lessons Hard to play? Try these video lessons and learn fast T-Shirt Weather  lessons
        
↑ Back to top | Tablatures and chords for acoustic guitar and electric guitar, ukulele, drums are parodies/interpretations of the original songs. You may use it for private study, scholarship, research or language learning purposes only