» » »

Chumbawamba - Amnesia Tabs

Artists:  A B C D E F G H I J K L M N O P Q R S T U V W X Y Z # 

Amnesia Tabs

(ver. 1) Click to play this song!
Chumbawamba
 Rating:
4/5 (4 votes)

 Amnesia lessons Tabs too difficult? Try these video lessons and learn fast
 
                -------------------------------------------------------------------------------
-------------------------------------------------------------------------------

Tuning: Standard (EADGBe)



MAIN RIFF

e|-----------------------------------|
B|-----------------------------------|
G|--3----3--6----6-8----8-1--1--2----| (this one is the original, BUT…)
D|--4----4--8----8-9----9-2--2--3----|
A|--4----4--8----8-9----9-2--2--3----|
E|--2----2--6----6-7----7-0--0--1----|

OR

e|-----------------------------------|
B|-----------------------------------|
G|--11---11---------------9--9--10---|
D|--11---11-8----8-9----9-9--9--10---| (...I prefer this one, though)
A|--9----9--8----8-9----9-7--7--8----|
E|----------6----6-7----7------------|



HORNS

e|--9----9-7-9--9--7-------9----9-7-9--12--|
B|-----------------------------------------|
G|-----------------------------------------|
D|-----------------------------------------|
A|-----------------------------------------|
E|-----------------------------------------|


1st VERSE

    F#         E       F#            E
Goodbye to the summer, sold down the river
F#      E          F#            E
Unhappy ever after, well did you ever
(riff)
Did you ever reach for the glued-down penny?
Same old joke and it's not funny
Burns are red, bruises blue, out with the old, cheated by the new



CHORUS

F#                 E                F#
Do you suffer from long-term memory loss?
  E
I don't remember
F#                 E                F#
Do you suffer from long-term memory loss?
  E
I don't remember



MAIN RIFF (x4)


HORNS (x2)


2nd VERSE (same as 1st)

You sing the same old verse, stick like glue for better or worse
What goes around comes around again, again, again
This heart's pulled apart, hydra fighting head to head
Burns are red, bruises blue, out with the old, cheated by the new


CHORUS



PIANO BRIDGE

D#m7   C#   B    Bbm*

*(without the ring finger, so the index finger bars the D string)



CHORUS (x2)

Instead of ending the chorus like usual (on E),
end on the last F# (the song ends guitarless)


THE END
            
Submit corrections


        Amnesia lessons Hard to play? Try these video lessons and learn fast Amnesia lessons
        
↑ Back to top | Tablatures and chords for acoustic guitar and electric guitar, ukulele, drums are parodies/interpretations of the original songs. You may use it for private study, scholarship, research or language learning purposes only