» » »

Christopher Mclaren - Lost I Tabs

Artists:  A B C D E F G H I J K L M N O P Q R S T U V W X Y Z # 

Lost I Tabs

(ver. 1) Click to play this song!
Christopher Mclaren
 Rating:
4.4/5 (11 votes)

 Lost I lessons Tabs too difficult? Try these video lessons and learn fast
 
                [Main Riff]
e|-------------12------10-------9------------------------------------------------------10--9-----|
B|----10-----10------10-------10------10--12----10-------10-----9-----9/10---9-----9--9---9------|
G|--11-----11------11-------11------11--------11---11--11------9-----9------9-----9-----------9--|
D|-----------------------------------------------------------------------------------------------|
A|-9------9-------9--------9-------9---------9--------9-------7-----7------7-----7---7---7-------|
E|-----------------------------------------------------------------------------------------------|

e|-------------------------12-------10-------9-------------9------------------------7---------10-----9--|
B|----7----9-----10------10-------10-------10------10--12--10------10----9---10----9---9-----9------9---|
G|---9----9----11------11-------11-------11------11--------11--11-------9---------9---9-----------------|
D|------------------------------------------------------------------------------------------------------|
A|--7----7----9-------9--------9--------9-------9----------9-------9---7---7-----7-------7--7------7----|
E|------------------------------------------------------------------------------------------------------|

e|------------------9--9----12--12-------14------14------12------12------10-----10------9--|
B|-----10---10-----9--9----9---9-------10------10------10------10------10-----10------10---|
G|---11--------11--------------------11------11------11------11------11-----11------11-----|
D|-----------------------------------------------------------------------------------------|
A|--9----------9--7--7----7---7-----9-------9-------9-------9-------9------9-------9-------|
E|-----------------------------------------------------------------------------------------|

e|-----------9-------9------12----12----10----10----9----9---7---7--------------7--7--|
B|-----10-12-10-10---10----9-----9-----9-----9-----9----9---9---9------7----7--9--9---|
G|--11-------11------11---9-----9-----9-----9-----9----9--------------9----9----------|
D|------------------------------------------------------------------------------------|
A|--9--9-----9--9----9---7-----7-----7-----7-----7----7----7---7---7------7---7--7----|
E|------------------------------------------------------------------------------------|

e|-------12------12------10-----10------9------9------------9------12----12----10----10----9----9---7---7--|
B|-----10------10------10-----10------10-----10-------10-12-10----9-----9-----9-----9-----9----9---9---9---|
G|---11------11------11-----11------11-----11------11-------11---9-----9-----9-----9-----9----9------------|
D|---------------------------------------------------------------------------------------------------------|
A|--9-------9-------9------9-------9------9--------9--9-----9---7-----7-----7-----7-----7----7----7---7----|
E|---------------------------------------------------------------------------------------------------------|

e|-------12-------12------10------10------9------9----------------10----10----9----9---7---7-------7--|
B|-----10------10-------10------10------10-----10-----10----10---9-----9-----9----9---9---9------9----|
G|---11------11-------11------11------11-----11-----11----11----9-----9-----9----9--------------------|
D|----------------------------------------------------------------------------------------------------|
A|--9-------9--------9-------9-------9------9------9-----9-----7-----7-----7----7----7---7-----7------|
E|----------------------------------------------------------------------------------------------------|

e|--------------------12------12------10------10------9------9------------------9--------|
B|-----10-----10----10------10------10------10------10-----10--------10-12----10-----10--|
G|---11-----11----11------11------11------11------11-----11-------11--------11-----11----|
D|---------------------------------------------------------------------------------------|
A|--9------9-----9-------9-------9-------9-------9------9-------9----------9------9------|
E|---------------------------------------------------------------------------------------|

e|--------------------9------9----12----12----10----10----9----9---7---7------12-----12-------10-----10--|
B|-----10----10-----10-----10----9-----9-----9-----9-----9----9---9---9-----10-----10-------10-----10----|
G|---11----11-----11-----11-----9-----9-----9-----9-----9----9------------11-----11-------11-----11------|
D|-------------------------------------------------------------------------------------------------------|
A|--9-----9------9------9------7-----7-----7-----7-----7----7----7---7---9------9--------9------9--------|
E|-------------------------------------------------------------------------------------------------------|

e|-------9------9--------------|
B|-----10-----10-----10----10--|
G|---11-----11-----11----11----|
D|-----------------------------|
A|--9------9------9-----9------|
E|-----------------------------|            
Submit corrections


        Lost I lessons Hard to play? Try these video lessons and learn fast Lost I lessons
        
↑ Back to top | Tablatures and chords for acoustic guitar and electric guitar, ukulele, drums are parodies/interpretations of the original songs. You may use it for private study, scholarship, research or language learning purposes only