» » »

Christopher Mclaren - Like No Other Tabs

Artists:  A B C D E F G H I J K L M N O P Q R S T U V W X Y Z # 

Like No Other Tabs

(ver. 1) Click to play this song!
Christopher Mclaren
 Rating:
3.1/5 (30 votes)

 Like No Other  lessons Tabs too difficult? Try these video lessons and learn fast
 
                Tuning: Standard E A D G B E 

e|----------0---------------------0---------------------0----------------------0------------------|
B|------0-------0-------------0-------0-------------0-------0--------------5-------5-------5---5--|
G|----9---9---9---9---------7---7---7---7---------9---9---9---9----------9---9---9---9---9---9----|
D|--7----------------x4---5----------------x2---7----------------x2----7---------------7----------|
A|------------------------------------------------------------------------------------------------|
E|------------------------------------------------------------------------------------------------|

e|----------0---------------0--------0----------------------------------------------------------------|
B|------0-------0---------0---0-------0--------------0-------------0-------------0-------------0------|
G|----7---7---7---7-----0-------0------0-----------4---4---------4-----4-------0-----0-------0-----0--|
D|--5-----------------5-----------5-----5--------5-------5-----5-----5-------4-----4-------2-----2----|
A|------------------7--------------------7----7------------7-------------5-------------3--------------|
E|----------------------------------------------------------------------------------------------------|

e|------------------------------------------------------------------0------2-----2---2--|
B|-------------------------0-------------0-------------0--------------------------------|
G|------0---0------------4---4---------4-----4-------0-----0------0-----0------0--------|
D|----4---4---5/7------5-------5-----5-----5-------4-----4------2-----2------4-----4----|
A|--5-------------7--------------7--------------5------------3------3------5-----5------|
E|--------------------------------------------------------------------------------------|

e|--3-----3----3--3------3---3--2-----2---2--0------0-------2------2---2--3------3---3--5-----5---5--|
B|---------------------------------------------------------------------------------------------------|
G|------0--------------0------------0-------------0------0------0--------------0------------0--------|
D|----5------5-------5-----5------4-----4-------2------2------4------4-------5-----5------7-----7----|
A|--7-----7-------7------7------5-----5------3------3-------5------5------7------7------9-----9------|
E|---------------------------------------------------------------------------------------------------|

e|--3------3----3--2------2---2--0------2---2---0-----0-----0----0-----0-----0----0-----0-----0----|
B|------------------------------------------------0-----0-----0----0-----0-----0----0-----0-----0--|
G|-------0--------------0------------0--------------0-----0----------0-----0----------0-----0------|
D|-----5------5-------4-----4------2------4-----------5-----5----------7----------------5-----5----|
A|--7------7-------5------5------3------5-------7----------------9-----------9----7----------------|
E|-------------------------------------------------------------------------------------------------|

e|--0-----0-----0----0-----0-----0----0-----0-----0----0-----0-----0----0-----0-----0----0-----0-----0----|
B|----0-----0-----0----0-----0-----0----0-----0-----0----0-----0-----0----0-----0-----0----0-----0-----0--|
G|------0-----0----------0-----0----------0-----0----------0-----0----------0-----0----------0-----0------|
D|--------4----------------2----------------4----------------5-----5----------7----------------9----------|
A|--5-----------5----3-----------3----5-----------5----7----------------9-----------9----10----------10---|
E|--------------------------------------------------------------------------------------------------------|

e|--0-----0-----0----0-----0-----0----0-----0-----0----0-----0-----0----0-----0-----0----|
B|----0-----0-----0----0-----0-----0----0-----0-----0----0-----0-----0----0-----0-----0--|
G|------0-----0----------0-----0----------0-----0----------0-----0----------0-----0------|
D|--------7----------------5-----5----------4----------------2----------------4----------|
A|--9-----------9----7----------------5-----------5----3-----------3----5-----------5----|
E|---------------------------------------------------------------------------------------|

e|--0-------0-------0----0-------0-------0----0-------0-------------------------------0----------------------|
B|--------0---0----------------0---0----------------0---0------------0--------------0---0------------0-------|
G|------0-------0------------0-------0------------0-------0--------0---0----------0-------0--------0---0-----|
D|----5-----------5--------4-----------0--------2-----------2----4-------4------5-----------5----4-------4---|
A|--7---------------7----5---------------3----3----------------5-----------5--7----------------5-----------5-|
E|-----------------------------------------------------------------------------------------------------------|

e|----------0-------------------------------0---------0----------0-------------------------------0--|
B|--------0---0------------0--------------0---------0----------0---0------------0--------------0----|
G|------0-------0--------0---0----------0---------0----------0-------0--------0---0----------0------|
D|----2-----------2----4-------4------5---------4----------2-----------2----4-------4------5--------|
A|--3----------------5-----------5--7---------5----------3----------------5-----------5--7----------|
E|--------------------------------------------------------------------------------------------------|

e|----------0---------0-----------------0-----------------0---------0-----------------------------|
B|--------0---------0---0-------------0---0-------------0---------0---------0--------0-------0----|
G|------0---------0-------0---------0-------4---------0---------0---------0--------0-------0------|
D|----4---------2-----------2-----4-----------5-----5---------4---------2--------4-------5--------|
A|--5---------3-----------------5-----------------7---------5---------3--------5-------7-------7--|
E|------------------------------------------------------------------------------------------------|

e|---------------------------0------------------------------------------------------------------|
B|--------0--------0-------0----------0--------0--------0------------0----------0----0----------|
G|------0--------0-------0----------0--------0--------0------------0--------0-----0----0---0----|
D|----2--------4-------5----------2--------4--------5------------2--------4---4-----4----4---4--|
A|--3--------5-------7----------3--------5--------7-------7----3--------5-----------------------|
E|----------------------------------------------------------------------------------------------|

e|----------------------------------------------------------------------|
B|----------------------------------------------------------------------|
G|----------0---0------------0---0------------0---0------------0---0----|
D|--2---2------------4---4------------5---5------------5---5------------|
A|--3-3-3-3---3---3--5-5-5-5---5---5--7-7-7-7---7---7--7-7-7-7---7---7--|
E|----------------------------------------------------------------------|

e|-----------------------------------------------------------------0----|
B|----------------------------------------------------------------------|
G|----------0---0------------0---0------------0---0------------0--------|
D|--2---2------------4---4------------5---5------------5---5------------|
A|--3-3-3-3---3---3--5-5-5-5---5---5--7-7-7-7---7---7--7-7-7-7---7---7--|
E|----------------------------------------------------------------------|

e|--------------0----------------0----0---0--0--0--0---0--0--0---0--0--0--0---2--2--2--2---3--3--3--3--|
B|-----------------------------------------------------------------------------------------------------|
G|----------0----------------0---------------4------------2------------0------------2------------4-----|
D|--2---2------------4---4----------------5-----5------4-----4------2-----2------4-----4------5-----5--|
A|--3-3-3-3---3---3--5-5-5-5---5---5--7------------5-------------3------------5------------7-----------|
E|-----------------------------------------------------------------------------------------------------|

e|--2--2--2--2---0--0--0--0--2---2--2--2---0--------2------3-----5-----3------2-----3------|
B|------------------------------------------------0---0------0-----0-----0------0-----0----|
G|--------2------------0------------2-----------0-------0------0-----0-----0------0-----0--|
D|-----4-----4------2-----2------4-----4---------------------------------------------------|
A|--5------------3-----------5-------------7-----------------------------------------------|
E|-----------------------------------------------------------------------------------------|

e|----------*12-------*5----------------------*12-----------0----*12---|
B|------*12-------*5----------------------*12-------------0------------|
G|------------------------------------*12---------------0--------------|
D|--------------------------------+14-----------------2----------------|
A|----------------------------+14-------------------2------------------|
E|--*12-------------------*12---------------------0-----------0--------|            
Submit corrections


        Like No Other  lessons Hard to play? Try these video lessons and learn fast Like No Other  lessons
        
↑ Back to top | Tablatures and chords for acoustic guitar and electric guitar, ukulele, drums are parodies/interpretations of the original songs. You may use it for private study, scholarship, research or language learning purposes only