Home » C » Christopher Cross »

Christopher Cross - Never Be The Same Bass

Artists:  A B C D E F G H I J K L M N O P Q R S T U V W X Y Z # 

Never Be The Same Bass

(ver. 1) Click to play this song!
Christopher Cross
Tuning:  E A D G

. = muted/staccato note


INTRO    x7
|----------|--------|
|:--------:|------2/|
|:--------:|--------|
|----------|--------|

|---.----|---.---.|---.---.|---.----|--------|--------|--------|--------|
|7--7---.|7--77--4|4--4---4|4--44--.|---.4--.|---.---0|2--22--0|-2-4-6--|
|----7--7|--------|----4---|-------2|2--2---2|2--22-4-|-----24-|--------|
|--------|--------|--------|--------|--------|--------|--------|--------|


VERSE 1
|---.----|---.---.|---.---.|---.----|--------|--------|--------|--------|
|7--7---.|7--77--4|4--4---4|4--4---.|---.4--.|---.---0|2--22--0|~2~4~6~-|
|----7--7|--------|----4---|----4--2|2--2---2|2--22-4-|-----24-|-------7|
|--------|--------|--------|--------|--------|--------|--------|--------|

|---.---.|---.---.|---.---.|---.----|--------|--------|--------|--------|
|7--7---7|7--77--4|4--4---4|4--44--.|---.4--.|---.---0|2--22--2|-2-2-0--|
|----7---|--------|----4---|-------2|2--2---2|2--22-4-|-----24-|------42|
|--------|--------|--------|--------|--------|--------|--------|--------|


CHORUS 1
|--------|--------|--------|--------|---.---.|---.---.|--------|--------|
|---.---.|---.---.|---.---.|---.---0|2--22--2|2--22--2|---.----|-0222242|
|0--00--0|0--00--1|2--22--2|2--22-4-|--------|--------|0--00--0|--------|
|--------|--------|--------|--------|--------|--------|--------|--------|

|--------|--------|--------|--------|---.---.|---.---.|--------|--------|
|---.---.|---.---.|---.---.|---.---0|2--22--2|2--22--2|---.---2|~~~~~~~-|
|0--00--0|0--00--1|2--22--2|2--22-4-|--------|--------|0--000--|-------7|
|--------|--------|--------|--------|--------|--------|--------|--------|


VERSE 2
|---.----|---.---.|---.---.|---.----|--------|--------|--------|--------|
|7--7---.|7--77--4|4--4---4|4--44--.|---.4--.|---.---0|2--22--0|~2~4~6~-|
|----7--7|--------|----4---|-------2|2--2---2|2--22-4-|-----24-|--------|
|--------|--------|--------|--------|--------|--------|--------|--------|

|---.---.|---.---.|---.---.|---.----|--------|--------|--------|--------|
|7--7---7|7--77--4|4--4---4|4--44--.|---.4--.|---.---0|2--22--2|-2-2-0--|
|----7---|--------|----4---|-------2|2--2---2|2--22-4-|-----24-|------42|
|--------|--------|--------|--------|--------|--------|--------|--------|


CHORUS 2
|--------|--------|--------|--------|---.---.|---.---.|--------|----------|
|---.---.|---.---.|---.---.|---.---0|2--22--2|2--22--2|---.----|-0222/42--|
|0--00--0|0--00--1|2--22--2|2--22-4-|--------|--------|0--00--0|--------42|
|--------|--------|--------|--------|--------|--------|--------|----------|

|--------|--------|--------|---------|---.---.|---.---.|--------|
|---.---.|---.---.|---.---.|---.----0|2--22--2|2--22--2|---.----|
|0--00--0|0--00--1|2--22--2|2--22-/4-|--------|--------|0--00---|
|--------|--------|--------|---------|--------|--------|--------|


SOLO
|--------|---.---.|---.-----|--------|--------|---.---.|--------|--------|
|---.--0-|2--22--3|3--33----|3--332--|---.---.|5--55--5|---.----|--------|
|3--33---|--------|-------/5|--------|5--55--5|--------|3--33-33|---.----|
|--------|--------|---------|--------|--------|--------|--------|3--33-53|

|---------|-------.|---.------|---..---|---------|--------|--------|
|---.-----|---.---3|3--333----|3--332-.|---.---/3|5~~~~~~0|2~~~~~2/|
|3--3333/6|7--777--|-------3h5|-------5|5--55----|--------|--------|
|---------|--------|----------|--------|---------|--------|--------|


VERSE 3
|---.---.|---.--..|---.----|---.----|--------|--------|---.----|--------|
|7--7--.7|7--77-66|4--4---4|4--44--.|---.4--.|---.---0|22-22--2|-2-2-22-|
|----7-7-|--------|----4---|-------2|2--2---2|2--22-4-|--------|--------|
|--------|--------|--------|--------|--------|--------|--------|--------|


OUTRO           ..
|-------.|3--.3-22|---.---.|------22|---.---.|--------|--------|--------|
|---.3--3|---3----|5--5---5|5--.55--|---55--5|---.--01|3--33--3|-3-3~10-|
|1--1----|--------|----5---|---5----|3-------|3--33---|-----35-|-------3|
|--------|--------|--------|--------|--------|--------|--------|--------|

|--------|--------|--------|--------|---.---.|---.----|--------|--------|
|---.---.|---.---.|---.---.|---.--01|3--33--3|3--33-33|---.----|-33353--|
|1--11--1|1--11--1|3--33--3|3--33---|--------|--------|1--11--1|1-----53|
|--------|--------|--------|--------|--------|--------|--------|--------|

|--------|--------|--------|--------|---.---.|---.-----|-------3|~-------|
|---.---.|---.---.|---.---.|------01|3--33--3|3--33-/53|-----35-|-5-3-53-|
|1--11--1|1--11--1|3--33--3|3--333--|--------|---------|1--11---|-------5|
|--------|--------|--------|--------|--------|---------|--------|--------|

|--------|--------|--------|--------|
|---.---.|---.---.|---.---.|---.----|
|1--11--1|1--11--1|3--33--3|3--33---|
|--------|--------|--------|--------|
            
Submit corrections

↑ Back to top | Tablatures and chords for acoustic guitar and electric guitar, ukulele, drums are parodies/interpretations of the original songs. You may use it for private study, scholarship, research or language learning purposes only