Home » C » Christopher Cross »

Christopher Cross - Mama Bass

Artists:  A B C D E F G H I J K L M N O P Q R S T U V W X Y Z # 

Mama Bass

(ver. 1) Click to play this song!
Christopher Cross
Intro:

G|--------------------------------|
D|5---3---------------------------| x3
A|--------5-3-----------------5---|
E|------------6-3---3---3-3-6---6-|

G|--------------------------------|
D|5---3---------------------------|
A|--------5-3---------------------|
E|------------6-3---3-3-----------|


Verse:

G|--------------------------------|
D|5---3---------------------------| x7
A|--------5-3-----------------5---|
E|------------6-3---3---3-3-6---6-|

G|--------------------------------|
D|5---3---------------------------|
A|--------5-3-----------------5---|
E|------------6-3---3---3-3-6-----|


Pre-chorus:

G|----------------------------------------------------------------|
D|----------------------------------------------------------------|
A|666666666666666688888888888888886666666666666666555555555555----|
E|----------------------------------------------------------------|


Chorus:

G|--------------------------------|
D|5---3---------------------------| x3
A|--------5-3-----------------5---|
E|------------6-3---3---3-3-6---6-|

G|--------------------------------|
D|5---3---------------------------|
A|--------5-3---------------------|
E|------------6-3---3-3-----------|


?
Verse:

G|--------------------------------|
D|5---3---------------------------| x7
A|--------5-3-----------------5---|
E|------------6-3---3---3-3-6---6-|

G|--------------------------------|
D|5---3---------------------------|
A|--------5-3-----------------5---|
E|------------6-3---3---3-3-6-----|


Pre-chorus:

G|----------------------------------------------------------------|
D|----------------------------------------------------------------|
A|666666666666666688888888888888886666666666666666555555555555----|
E|----------------------------------------------------------------|


Chorus:

G|--------------------------------|
D|5---3---------------------------| x3
A|--------5-3-----------------5---|
E|------------6-3---3---3-3-6---6-|

G|--------------------------------|
D|5---3---------------------------|
A|--------5-3-----------------5---|
E|------------6-3---3-3---3-6---6-|


Bridge:

G|--------------------------------|
D|--------------------------------| x2
A|3-------3-----------------------|
E|----------------3-------6-5-3---|


Pre-chorus:

G|----------------------------------------------------------------|
D|----------------------------------------------------------------|
A|666666666666666688888888888888886666666666666666555555555555----|
E|----------------------------------------------------------------|


Chorus x2:

G|--------------------------------|
D|5---3---------------------------| x3
A|--------5-3-----------------5---|
E|------------6-3---3---3-3-6---6-|

G|--------------------------------|
D|5---3---------------------------|
A|--------5-3-----------------5---|
E|------------6-3---3-3---3-6---6-|

G|--------------------------------|
D|5---3---------------------------| x3
A|--------5-3-----------------5---|
E|------------6-3---3---3-3-6---6-|

G|--------------------------------|
D|5---3---------------------------|
A|--------5-3-----------------5---|
E|------------6-3---3-3---3-6---6-|
            
Submit corrections

↑ Back to top | Tablatures and chords for acoustic guitar and electric guitar, ukulele, drums are parodies/interpretations of the original songs. You may use it for private study, scholarship, research or language learning purposes only