Home » C » Chris Tomlin »

Chris Tomlin - Your Grace Is Enough Tabs

Artists:  A B C D E F G H I J K L M N O P Q R S T U V W X Y Z # 

Your Grace Is Enough Tabs

(ver. 2) Click to play this song!
Chris Tomlin
Capo 2

[Intro]
E|--------------------------------------------------------------|
B|-10-10-10-12-12-9-9-10-10-12-12-9-9-10-10-10-10-9-9-7-7-5-5-5-|
G|--2--2--2--2--2-2-2--2--2--2--2-2-2--2--2--2--2-2-2-2-2-2-2-2-|
D|--------------------------------------------------------------|
A|--------------------------------------------------------------|
E|--------------------------------------------------------------|


E|----------------------------------------------------------------|
B|-10-10-9-9-10-10-14-14-14-10-10-10-12-12-9-9-10-10-12-12-9-9-10-|
G|--2--2-2-2--2--2--2--2--2--2--2--2--2--2-2-2--2--2--2--2-2-2--2-|
D|----------------------------------------------------------------|
A|----------------------------------------------------------------|
E|----------------------------------------------------------------|


E|-------------------------------------------------------|
B|-10-14-14-14-14-14-12-12-12-14-14-14-14-14-12-12-10-10-|
G|--2--2--2--2--2--2--2--2--2--2--2--2--2--2--2--2--2--2-|
D|-------------------------------------------------------|
A|-------------------------------------------------------|
E|-------------------------------------------------------|


[Verse 1]
E|---------------------------------------------------------------|
B|----------------7-7-9-10----------7-7-9-10----------7-7-9-10---|
G|-9---9-------------------9-----------------9-----------------9-|
D|---7---7-------------------------------------------------------|
A|---------------------------------------------------------------|
E|---------------------------------------------------------------|


[Verse 2]
E|--------------------------------------------------------------|
B|----------------10-9-7-9-7--------7-7-9-10--------------------|
G|-9---9---------------------9---------------9------------------|
D|---7---7--------------------------------------------11-9-11-9-|
A|--------------------------------------------------------------|
E|--------------------------------------------------------------|


[Prechorus]
E|-12---------|
B|----10-9-10-|
G|------------|
D|------------|
A|------------|
E|------------| x12


E|----------------------------------|
B|----------------------------------|
G|-11111111--11131313--13141414--16-|
D|----------------------------------|
A|--9-9-9-9---9111111--11121212--14-|
E|0000000000000000000000000000000000|


[Chorus]
E|--------------------------------------------------------------|
B|-10-10-10-12-12-9-9-10-10-12-12-9-9-10-10-10-10-9-9-7-7-5-5-5-|
G|--2--2--2--2--2-2-2--2--2--2--2-2-2--2--2--2--2-2-2-2-2-2-2-2-|
D|--------------------------------------------------------------|
A|--------------------------------------------------------------|
E|--------------------------------------------------------------|


E|----------------------------------------------------------------|
B|-10-10-9-9-10-10-14-14-14-10-10-10-12-12-9-9-10-10-12-12-9-9-10-|
G|--2--2-2-2--2--2--2--2--2--2--2--2--2--2-2-2--2--2--2--2-2-2--2-|
D|----------------------------------------------------------------|
A|----------------------------------------------------------------|
E|----------------------------------------------------------------|


E|-------------------------------------------------|
B|-10-10-7-7-7-7-7-9-9-9-9-10-10-10-10-12-12-12-10-|
G|--2--2-2-2-2-2-2-2-2-2-2--2--2--2--2--2--2--2--2-|
D|-------------------------------------------------|
A|-------------------------------------------------|
E|-------------------------------------------------|


End with [Intro]
            
Submit corrections

↑ Back to top | Tablatures and chords for acoustic guitar and electric guitar, ukulele, drums are parodies/interpretations of the original songs. You may use it for private study, scholarship, research or language learning purposes only