» » »

Chris Tomlin - Our God Bass

Artists:  A B C D E F G H I J K L M N O P Q R S T U V W X Y Z # 

Our God Bass

(ver. 3) Click to play this song!
Chris Tomlin
 Rating:
4.3/5 (13 votes)

 Our God lessons Tabs too difficult? Try these video lessons and learn fast
 
                [Verse 1] - (Follow the Video Tutorial for this part.)

G|---------------------------------------------------------------------------|
D|---------------------------------------------------------------------------|
A|----------------------2----------------------------------------------------|
E|--4-----------0------------------------------------------------------------|

G|---------------------------------------------------------------------------|
D|---------------------------------------------------------------------------|
A|----------------------2----------------------------------------------------|
E|--4-----------0------------------------------------------------------------|

G|---------------------------------------------------------------------------|
D|---------------------------------------------------------------------------|
A|--4----------(4)-----------------------------------------------------------|
E|----------------------------------2----------(2)---------------------------|

[Chorus 1] - (Whole Note's/Follow the Video Tutorial for this part.)

G|---------------------------------------------------------------------------|
D|---------------------------------------------------------------------------|
A|----------------------------2-----------1----------------------------------|
E|--4-----------0------------------------------------------------------------|

G|---------------------------------------------------------------------------|
D|---------------------------------------------------------------------------|
A|----------------------------2----------------------------------------------|
E|--4-----------0-------------------------2----------------------------------|

[Turn Around 1] - (Follow the Video Tutorial for this part.)

G|---------------------------------------------------------------------------|
D|---------------------------------------------------------------------------|
A|--------------------------------2--2---------------------------------------|
E|--4--4-----------0--0--------------------------2--2------------------------|

[Verse 2] - (Follow the Video Tutorial for this part.)

G|---------------------------------------------------------------------------|
D|---------------------------------------------------------------------------|
A|-------------------2-------------------------------------------------------|
E|--4--4----0----------------------------------------------------------------|

G|---------------------------------------------------------------------------|
D|---------------------------------------------------------------------------|
A|-------------------2-------------------------------------------------------|
E|--4--4----0----------------------------------------------------------------|

G|---------------------------------------------------------------------------|
D|---------------------------------------------------------------------------|
A|--4---4----(4)-------------------------------------------------------------|
E|---------------------------------2---2----(2)------------------------------|

[Chorus 2] - (Chorus 1 is repeated for a second time./Follow the Video Tutorial for this part.)

G|---------------------------------------------------------------------------|
D|---------------------------------------------------------------------------|
A|-------------------------------------------2--2------2---------1--1------1-|
E|--4--4------4----------0--0------0-----------------------------------------|

G|---------------------------------------------------------------------------|
D|---------------------------------------------------------------------------|
A|-------------------------------------------2--2------2---------------------|
E|--4--4------4----------0--0------0-----------------------------2--2------2-|

G|---------------------------------------------------------------------------|
D|---------------------------------------------------------------------------|
A|-------------------------------------------2--2------2---------1--1------1-|
E|--4--4------4----------0--0------0-----------------------------------------|

G|---------------------------------------------------------------------------|
D|---------------------------------------------------------------------------|
A|-------------------------------------------2--2------2---------------------|
E|--4--4------4----------0--0------0-----------------------------2--2------2-|

[Instrumental] - (Turn Around with Driving Eighth Note's./Follow the Video Tutorial for this part.)

G|---------------------------------------------------------------------------|
D|---------------------------------------------------------------------------|
A|----------------------------------------2-2-2-2-2-2-2-2--------------------|
E|--4-4-4-4-4-4-4-4----0-0-0-0-0-0-0-0-----------------------2-2-2-2-2-2-2-2-|

G|---------------------------------------------------------------------------|
D|---------------------------------------------------------------------------|
A|----------------------------------------2-2-2-2-2-2-2-2--------------------|
E|--4-4-4-4-4-4-4-4----0-0-0-0-0-0-0-0-----------------------2-2-2-2-2-2-2-2-|

[Bridge 1] - (Driving Eighth Note's./Follow the Video Tutorial for this part.)

G|---------------------------------------------------------------------------|
D|---------------------------------------------------------------------------|
A|----------------------------------------2-2-2-2-2-2-2-2--------------------|
E|--4-4-4-4-4-4-4-4----0-0-0-0-0-0-0-0-----------------------2-2-2-2-2-2-2-2-|

G|---------------------------------------------------------------------------|
D|---------------------------------------------------------------------------|
A|----------------------------------------2-2-2-2-2-2-2-2----4-4-4-4-4-4-4-4-|
E|--4-4-4-4-4-4-4-4----0-0-0-0-0-0-0-0---------------------------------------|

G|---------------------------------------------------------------------------|
D|---------------------------------------------------------------------------|
A|------------------------------------------6-6-6-6-6-6-6--------------------|
E|---4-4-4-4-4-4-4-------0-0-0-0-0-0-0------------------------2-2-2-2-2-2-2--|

G|---------------------------------------------------------------------------|
D|---------------------------------------------------------------------------|
A|------------------------------------------6-6-6-6-6-6-6--------------------|
E|---4-4-4-4-4-4-4-------0-0-0-0-0-0-0------------------------2-2-2-2-2-2-2--|

[Chorus 3] - (Chorus 2 - repeated a 3rd time w/Driving 8th Note's./Follow the Video Tutorial for this part.)

G|---------------------------------------------------------------------------|
D|---------------------------------------------------------------------------|
A|----------------------------------------2-2-2-2-2-2-2-2----1-1-1-1-1-1-1-1-|
E|--4-4-4-4-4-4-4-4----0-0-0-0-0-0-0-0---------------------------------------|

G|---------------------------------------------------------------------------|
D|---------------------------------------------------------------------------|
A|----------------------------------------2-2-2-2-2-2-2-2--------------------|
E|--4-4-4-4-4-4-4-4----0-0-0-0-0-0-0-0-----------------------2-2-2-2-2-2-2-2-|

G|---------------------------------------------------------------------------|
D|---------------------------------------------------------------------------|
A|----------------------------------------2-2-2-2-2-2-2-2----1-1-1-1-1-1-1-1-|
E|--4-4-4-4-4-4-4-4----0-0-0-0-0-0-0-0---------------------------------------|

G|---------------------------------------------------------------------------|
D|---------------------------------------------------------------------------|
A|----------------------------------------2-2-2-2-2-2-2-2--------------------|
E|--4-4-4-4-4-4-4-4----0-0-0-0-0-0-0-0-----------------------2-2-2-2-2-2-2-2-|

[Bridge 2] - (Bridge 1 is repeated for a second time after Chorus 3 with Driving Eighth Note's.)

G|---------------------------------------------------------------------------|
D|---------------------------------------------------------------------------|
A|----------------------------------------2-2-2-2-2-2-2-2----1-1-1-1-1-1-1-1-|
E|--4-4-4-4-4-4-4-4----0-0-0-0-0-0-0-0---------------------------------------|

G|---------------------------------------------------------------------------|
D|---------------------------------------------------------------------------|
A|----------------------------------------2-2-2-2-2-2-2-2--------------------|
E|--4-4-4-4-4-4-4-4----0-0-0-0-0-0-0-0-----------------------2-2-2-2-2-2-2-2-|

[Outro] - (Follow the Video Tutorial for this Part.)

G|---------------------------------------------------------------------------|
D|---------------------------------------------------------------------------|
A|------------------------------------------6-6-6-6-6-6-6--------------------|
E|---4-4-4-4-4-4-4-------0-0-0-0-0-0-0------------------------2-2-2-2-2-2-2--|

G|---------------------------------------------------------------------------|
D|---------------------------------------------------------------------------|
A|------------------------------------------6-6-6-6-6-6-6--------------------|
E|---4-4-4-4-4-4-4-------0-0-0-0-0-0-0------------------------2-2-2-2-2-2-2--|

G|---------------------------------------------------------------------------|
D|---------------------------------------------------------------------------|
A|---------------------------------------------------------------------------|
E|--2~--Let--It--Ring--------------------------------------------------------|

            
Submit corrections


        Our God lessons Hard to play? Try these video lessons and learn fast Our God lessons
        
↑ Back to top | Tablatures and chords for acoustic guitar and electric guitar, ukulele, drums are parodies/interpretations of the original songs. You may use it for private study, scholarship, research or language learning purposes only