Home » C » Chris Tomlin »

Chris Tomlin - Holy Is The Lord Tabs

Artists:  A B C D E F G H I J K L M N O P Q R S T U V W X Y Z # 

Holy Is The Lord Tabs

(Version #2)
Chris Tomlin
e|---------------------------------------------------------------------------|
B|-----------------------------------------0---------------------------------|
G|--0----0---0----0------------------------0--2---0----0------------------0--|
D|--------------------0--0--0-x----0---0---0---------------0---0-----0-------|
A|-------2--------3--------------3-------------------------------------------|
E|-------------------------------3-------------------------------------------|
   we stand and lift up our hands for the joy of the Lord is our strength we
e|---------------------------------------------------------------------------|
B|----------------0--------------------0--------1---0-----------------0-1--0-|
G|---0---0--------0--2----0---2---0----0----0---0-------2--2-----------------|
D|------------0---0-----------4--------2--------2-------0--0--0---0----------|
A|---2-----------------------------------------------------------------------|
E|---------------------------------------------------------------------------|
    bow down and worship Him now how great how awesome is He and together we 
e|---------------------------------------------------------------------------|
B|---------------------------------------------------------------------------|
G|----2----------------------------------------------------------------------|
D|----2----------------------------------------------------------------------|
A|---------------------------------------------------------------------------|
E|---------------------------------------------------------------------------|
    sing 
e|---------------------------------------------------------------------------|
B|------0--1--0-----------3-1--0-0----------0-------1-------0-------0----0-1-|
G|-------------2-0----0---0------0--2--0----0---0---0-----------0---0--2-----|
D|--------------------0---2------0----------0-------2---------------0--------|
A|---------------------------------------------------------------------------|
E|---------------------------------------------------------------------------|
chorus: holy is the Lord God almighty the earth is filled with His glory holy
e|---------------------------------------------------------------------------|
B|---0-----------3-1--0--0---------0-------1-------0--------0---------0------|
G|------0----0---0-------0-2--0----0---0---0-----------0----0-2--0----0---0--|
D|-----------0---2-------0---------0-------2----------------0---------0------|
A|---------------------------------------------------------------------------|
E|---------------------------------------------------------------------------|
    is the Lord God almighty the earth is filled with His glory the earth is
e|---------------------------------------------------------------------------|
B|----1------0-------0-------------------------------------------------------|
G|----0----------0---0-2-----------------------------------------------------|
D|----2--------------0-------------------------------------------------------|
A|---------------------------------------------------------------------------|
E|---------------------------------------------------------------------------|
    filled with His glory 
e|---------------------------------------------------------------------------|
B|-----------3-------0-------------------3--------------0--------------------|
G|--0---0----5-0--0--0---2--2---0----0---2--0--0---0----0----0--0---0---0----|
D|-----------5-------0---4--4---------------------------2-------2------------|
A|---------------------------------------------------------------------------|
E|---------------------------------------------------------------------------|
    it is rising up all around it's the anthem of the Lords renown and it's
e|---------------------------------------------------------------------------|
B|--3---------0--------------------3------------0----------------------------|
G|--5--0---0--0---2--2---0----0----2--0--0--0---0-------0--0-----------------|
D|--5---------0---4--4--------------------------2----------2-----------------|
A|---------------------------------------------------------------------------|
E|---------------------------------------------------------------------------|
   rising up all around it's the anthem of the Lord's renown (repeat chorus)            
Submit corrections

↑ Back to top | Tablatures and chords for acoustic guitar and electric guitar, ukulele, drums are parodies/interpretations of the original songs. You may use it for private study, scholarship, research or language learning purposes only