Home » C » Christmas Songs »

Christmas Songs - Silent Night Tabs

Artists:  A B C D E F G H I J K L M N O P Q R S T U V W X Y Z # 

Silent Night Tabs

(ver. 2) Click to play this song!
Christmas Songs
(1)
Silent Night
12/25/03


E|---------------------------5/7--7------------------
B|--5--7--5--2---5--7--5--2----------9--10--10-------
G|----------------------------------------------9----
D|---------------------------------------------------
A|---------------------------------------------------
E|---------------------------------------------------

E|---------------------------------------------------
B|--7--7--9/10--9--7-----7--------7--7--9/10--9--7---
G|--------------------9-----9--6---------------------
D|---------------------------------------------------
A|---------------------------------------------------
E|---------------------------------------------------

E|--------------7--7--10--7---------9----------------
B|-----7---------------------9--10-----10------------
G|--9-----9--6-----------------------------9--6--9---
D|---------------------------------------------------
A|---------------------------------------------------
E|---------------------------------------------------

E|---------------------------------------------------
B|---------------------------------------------------
G|--7--4--2------------------------------------------
D|---------------------------------------------------
A|---------------------------------------------------
E|---------------------------------------------------


Merry Christmas to all!
            
Submit corrections

↑ Back to top | Tablatures and chords for acoustic guitar and electric guitar, ukulele, drums are parodies/interpretations of the original songs. You may use it for private study, scholarship, research or language learning purposes only