Home » C » Christmas Songs »

Christmas Songs - O Christmas Tree Tabs

Artists:  A B C D E F G H I J K L M N O P Q R S T U V W X Y Z # 

O Christmas Tree Tabs

(ver. 2) Click to play this song!
Christmas Songs
I believe this is the easiest version of the well known "O Christmas tree."

E--------------------------------------------------|
B-----------------0--0-0--0--0-1-------------------|
G-----0--0-0---2------------2---------2--0---------|
D--0-------------------------------4---------------|
A--------------------------------------------------|
E--------------------------------------------------|


E--------0-----------------------------------------|
B--3-3-0----3-3--1-1---1-1---3---1-1--0-0----------|
G--------------------------2-----------------------|
D--------------------------------------------------|
A--------------------------------------------------|
E--------------------------------------------------|


E--------------------------------------------------|
B-----------------0--0-0--0--0-1-------------------|
G-----0--0-0---2------------2---------2--0---------|
D--0-------------------------------4---------------|
A--------------------------------------------------|
E--------------------------------------------------|
            
Submit corrections

↑ Back to top | Tablatures and chords for acoustic guitar and electric guitar, ukulele, drums are parodies/interpretations of the original songs. You may use it for private study, scholarship, research or language learning purposes only