Home » C » Christmas Songs »

Christmas Songs - Hark The Herald Angel Sings Tabs

Artists:  A B C D E F G H I J K L M N O P Q R S T U V W X Y Z # 

Hark The Herald Angel Sings Tabs

(ver. 3) Click to play this song!
Christmas Songs
E------------------------------------------------------------
B-------------------12-12----15-15-15---13-12----12----------
G------12-12-----12-------14------------------14-------------
D---12--------16---------------------------------------------
A------------------------------------------------------------
E------------------------------------------------------------

E------------------------------------------------------------
B-------------------12-12----15------------------------------
G------12-12-----12-------14----14-14------------------------
D---12-------16-----------------------16-16-14-12------------
A------------------------------------------------------------
E------------------------------------------------------------

E------------------------------------------------------
B---15-15-15-----13-12-12------------------------------
G-------------12----------14---------------------------
D------------------------------------------------------
A------------------------------------------------------
E------------------------------------------------------

E------------------------------------------------------
B---15-15-15-----13-12-12------------------------------
G-------------12----------14---------------------------
D------------------------------------------------------
A------------------------------------------------------
E------------------------------------------------------

E---12-12-12--------------------------------------------
B------------15-13-12-13---------12-13-15----------12---
G-----------------------------14-----------12-12-14-----
D-------------------------------------------------------
A-------------------------------------------------------
E-------------------------------------------------------

E---12-12-12---------------------------------------------
B-------------15-13-12-13--------12-13-15----------------
G-----------------------------14-----------12-12-14-12---
D--------------------------------------------------------
A--------------------------------------------------------
E--------------------------------------------------------
            
Submit corrections

↑ Back to top | Tablatures and chords for acoustic guitar and electric guitar, ukulele, drums are parodies/interpretations of the original songs. You may use it for private study, scholarship, research or language learning purposes only