Home » C » Christina Perri »

Christina Perri - A Thousand Years Tabs

Artists:  A B C D E F G H I J K L M N O P Q R S T U V W X Y Z # 

A Thousand Years Tabs

(ver. 4) Click to play this song!
Christina Perri
[Verse]
 
e|-----------------------------------------------------------------------------------------------------------|
B|----------------------------------------------------------------------------6------------------------------|
G|---3-------3--------3--------7---5------3------3------3------3----------------8------7---------------------|
D|-------------------------------------------------------------------------------------------8-------5-------|
A|-----------------------------------------------------------------------------------------------------------|
E|-----------------------------------------------------------------------------------------------------------|
 
e|-----------------------------------------------------------------------------------------------------------|
B|--6--------------------------------------------------------------------------------------------------------|
G|--------8-----7-------5------7-------2-------3----------3--------3--------3-------7------5-----3------3----|
D|-----------------------------------------------------------------------------------------------------------|
A|-----------------------------------------------------------------------------------------------------------|
E|-----------------------------------------------------------------------------------------------------------|
 
e|----------------------------------------------------------------------------------------------------------|
B|------------------------6-----------------------------------------------------6---------------------------|
G|---3--------3--------------------7--------8---------------------------------------------------------5---7-|
D|-------------------------------------------------------8--------5----------------------8--------7---------|
A|----------------------------------------------------------------------------------------------------------|
E|----------------------------------------------------------------------------------------------------------|
 
e|-------------------------------------------------------------------------|
B|------------------------------------8-----10-----10  ------10------------|
G|----2-------3------------------------------------------------------------|
D|----------------------5--------------------------------------------------|
A|-------------------------------------------------------------------------|
E|-------------------------------------------------------------------------|
 
 
[Chorus]
 
e|-------------------------------|
B|-----6-----------------6-------|
G|-7------7--------7----------7--|
D|-------------------------------|
A|-------------------------------|
E|-------------------------------|
 
e|-----------------------------------------------------------------------------------------------------------|
B|--8---------------------------------------------6------------------------------6---------8-----------------|
G|--------10-------5-------------------7-----------------7------------7-----------------7-----10------5------|
D|---------------------------8----------------------------------------------------------------------------8--|
A|-----------------------------------------------------------------------------------------------------------|
E|-----------------------------------------------------------------------------------------------------------|
 
e|----------------------------------------------------------------------------------------------------------|
B|----------------------------------------------------------------------------------------------------------|
G|----------5---------8 ------7-------------------------------5-----------------5--------8------7-----5-----|
D|---8----------------------------------5----------5-------8-----------------8------------------------------|
A|----------------------------------------------------------------------------------------------------------|
E|----------------------------------------------------------------------------------------------------------|
 
 
[Interlude]
 
e|----------------------------------------------------------------------------------------------------------|
B|---------------------------------------------------------------------------------6------------------------|
G|--3------3------3--------7-------5---------3-------3-------3-------3--------------8------7----------------|
D|----------------------------------------------------------------------------------------------8--------5--|
A|----------------------------------------------------------------------------------------------------------|
E|----------------------------------------------------------------------------------------------------------|
 
e|----------------------------------------------------------------------------------------------------------|
B|--6-------------------------------------------------------------------------------------------------------|
G|-------8-----7--------5-------7--------2-------5-------3------3------3------7------5-----3---3----10---7--|
D|----------------------------------------------------------------------------------------------------------|
A|----------------------------------------------------------------------------------------------------------|
E|----------------------------------------------------------------------------------------------------------|
 
e|----------------------------------------------------------------------------------------------------------|
B|---6-----------------------------------6------------------------------------------------8------10----10 --|
G|---------8-----7----------------------------8-----7-------5------7-------2-------3------------------------|
D|-----------------------8------5------------------------------------------------------5--------------------|
A|----------------------------------------------------------------------------------------------------------|
E|----------------------------------------------------------------------------------------------------------|
 
e|---------------------------------------------------------------------------------|
B|-10-------------6-----------------------6-------------8--------------------------|
G|----------7------------7--------7--------------7---------------10-------5----7---|
D|----------------------------------------------------------------------------8----|
A|---------------------------------------------------------------------------------|
E|---------------------------------------------------------------------------------|
 
 
[Chorus]
 
e|------------------------------|
B|------6-----------------6-----|
G|---7------7---------7------7--|
D|------------------------------|
A|------------------------------|
E|------------------------------|
 
e|-----------------------------------------------------------------------------------------------------------|
B|--8--------------------------------------------------------------------------------------------------------|
G|----------10------5----------------------5-------8 ---7------2----------------5------5------8------7-----5-|
D|----------------------------8-----8--------------------------------8----8---------8------------------------|
A|-----------------------------------------------------------------------------------------------------------|
E|-----------------------------------------------------------------------------------------------------------|
 
e|----------------------------------------------------------------------------------------------------------|
B|----------------6------------------------6-------------8---------------------------------------------6----|
G|--------7-------------7-------7----------------7---------------10------5-----------------7--------------7-|
D|--8--------------------------------------------------------------------------------8----------------------|
A|----------------------------------------------------------------------------------------------------------|
E|----------------------------------------------------------------------------------------------------------|
 
e|----------------------------------------------------------------------------------------------------------|
B|-----------------6-------------8--------------------------------------------------------------------------|
G|---------7-------------7---------------10-------5------------------------5-----8 ---7----------------5----|
D|--8-------------------------------------------------------8--------8-------------------5------8----8------|
A|----------------------------------------------------------------------------------------------------------|
E|----------------------------------------------------------------------------------------------------------|
 
e|------------------------------------------------|
B|-------------------------------6----------------|
G|-------5-------8-----7--------------------------|
D|-8----------------------------------------------|
A|------------------------------------------------|
E|------------------------------------------------|
 
e|------------------------------------------------------------|
B|---------------------------------8-----10------10 --13------|
G|--3-----5-----5 /7------5-----------------------------------|
D|------------------------------------------------------------|
A|------------------------------------------------------------|
E|------------------------------------------------------------|
 
 
[Chorus]
 
e|----------13--------------------------13------------15------13------8-------------------------13-----------|
B|-15------------15---------15--------------15---------------------------------11-------15-------------15----|
G|-----------------------------------------------------------------------------------------------------------|
D|-----------------------------------------------------------------------------------------------------------|
A|-----------------------------------------------------------------------------------------------------------|
E|-----------------------------------------------------------------------------------------------------------|
 
e|----------13--------------15-----13------8----------------------8-----11-------------------------8------|
B|-15-------------15-------------------------------11-----11---------------------8------11----11------11--|
G|--------------------------------------------------------------------------------------------------------|
D|--------------------------------------------------------------------------------------------------------|
A|--------------------------------------------------------------------------------------------------------|
E|--------------------------------------------------------------------------------------------------------|
 
e|--8----11---10---8---------------------------13-------------------------13--------------15------13----8---|
B|--------------------------------------15---------------15--------15-------------15---------------------11-|
G|-------------------------------15-------------------------------------------------------------------------|
D|----------------------------------------------------------------------------------------------------------|
A|----------------------------------------------------------------------------------------------------------|
E|----------------------------------------------------------------------------------------------------------|
 
e|------------13--------------------------------------13---------15------13-----8----------------8----11 -|
B|--15--------------15-------------------15---------------15------------------------11-----11-------------|
G|-------------------------------15-----------------------------------------------------------------------|
D|--------------------------------------------------------------------------------------------------------|
A|--------------------------------------------------------------------------------------------------------|
E|--------------------------------------------------------------------------------------------------------|
 
e|-10----------------------------------8---------------8-------11------10------8-------------|
B|------------8--------11----11--------------11----------------------------------------------|
G|-------------------------------------------------------------------------------------------|
D|-------------------------------------------------------------------------------------------|
A|-------------------------------------------------------------------------------------------|
E|-------------------------------------------------------------------------------------------|            
Submit corrections

↑ Back to top | Tablatures and chords for acoustic guitar and electric guitar, ukulele, drums are parodies/interpretations of the original songs. You may use it for private study, scholarship, research or language learning purposes only