» » »

Chris Stapleton - Nobodys Lonely Tonight Tabs

Artists:  A B C D E F G H I J K L M N O P Q R S T U V W X Y Z # 

Nobodys Lonely Tonight Tabs

(ver. 1) Click to play this song!
Chris Stapleton
 Rating:
4.3/5 (21 vote)

 Nobodys Lonely Tonight lessons Tabs too difficult? Try these video lessons and learn fast
 
                [Intro/Verse]
      C#m                        C                     B
e|---------------------------------------------------------------------------|
B|----------------5-----------------------5-----------------------4----------|
G|---------6----------6-------------5--------5------------4-----------4------|
D|-------------6----------6------------5--------5-------------4-----------4--|
A|----4--------------------------3---------------------2---------------------|
E|---------------------------------------------------------------------------|

     Bbm7                      A                         B
e|---------------------------------------------------------------------------|
B|---------------2------------------------2------------------------4---------|
G|--------1---------1--------------2----------2-------------4----------4-----|
D|------------3--------3---------------2---------2--------------4---------4--|
A|---1-------------------------0-------------------------2-------------------|
E|---------------------------------------------------------------------------|

    E
e|---------------------------------------------------------------------------|
B|-----------0---------------------------------------------------------------|
G|----1---------1-------------------1------------1---------------------------|
D|--------2--------2------------2-----------2--------------------------------|
A|--------------------------2-----------3------------------------------------|
E|--0------------------------------------------------------------------------|

      C#m                        C                     B
e|---------------------------------------------------------------------------|
B|----------------5-----------------------5-----------------------4----------|
G|---------6----------6-------------5--------5------------4-----------4------|
D|-------------6----------6------------5--------5-------------4-----------4--|
A|----4--------------------------3---------------------2---------------------|
E|---------------------------------------------------------------------------|

     Bbm7                      A                         B
e|---------------------------------------------------------------------------|
B|---------------2------------------------2------------------------4---------|
G|--------1---------1--------------2----------2-------------4----------4-----|
D|------------3--------3---------------2---------2--------------4---------4--|
A|---1-------------------------0-------------------------2-------------------|
E|---------------------------------------------------------------------------|

    E
e|---------------------------------------------------------------------------|
B|-----------0---------------------------------------------------------------|
G|----1---------1------------------------------------------------------------|
D|--------2--------2---------------------------------------------------------|
A|---------------------------------------------------------------------------|
E|--0---------------------------0----2-----4-----5---------------------------|

[Chorus]
     A                                                 E
e|---------------------------------------------------------------------------|
B|--------------------------------------------------------------9------------|
G|--------------6-----------------------6-----------------9--------9---------|
D|-------7---------7--------------7--------7-----------------9--------9------|
A|-----------7--------7--------------7--------7--------7---------------------|
E|---5--------------------------5--------------------------------------------|

    E                        C#m                       B
e|---------------------------------------------------------------------------|
B|------------9--------------------------5------------------------4----------|
G|-----9---------9-----------------6--------6---------------4--------4-------|
D|--------9---------9-----------------6---------6--------------4--------4----|
A|--7------------------------4-------------------------2---------------------|
E|---------------------------------------------------------------------------|

    A
e|---------------------------------------------------------------------------|
B|-----------2------------------2--------------------------------------------|
G|-----2--------2----------2-------2-----------------------------------------|
D|--------2--------2---------2--------2--------------------------------------|
A|--0-------------------0----------------------------------------------------|
E|---------------------------------------------------------------------------|            
Submit corrections


        Nobodys Lonely Tonight lessons Hard to play? Try these video lessons and learn fast Nobodys Lonely Tonight lessons
        
↑ Back to top | Tablatures and chords for acoustic guitar and electric guitar, ukulele, drums are parodies/interpretations of the original songs. You may use it for private study, scholarship, research or language learning purposes only