» » »

Chris Stapleton - A Simple Song Tabs

Artists:  A B C D E F G H I J K L M N O P Q R S T U V W X Y Z # 

A Simple Song Tabs

(ver. 1) Click to play this song!
Chris Stapleton
 Rating:
4.4/5 (5 votes)

 A Simple Song lessons Tabs too difficult? Try these video lessons and learn fast
 
                [Intro & Verse]
e|---------------------------------------------------------------------------|
B|---0h3---3----2---0-----0h3----3----2---0-----3----------------------------|
G|--------------------------------------------------2------2-----------------|
D|----------------------------------------------0------0-------0-------------|
A|---------------------------------------------------------------------------|
E|---3--------------------3--------------------------------------------------|

e|---------------------------------------------------------------------------|
B|-3-------------------0h3----3---2---0-----0h3----3---2---0-----------------|
G|-----2------2--------------------------------------------------------------|
D|-0------0------0-----------------------------------------------------------|
A|---------------------------------------------------------------------------|
E|---------------------3--------------------3--------------------------------|

e|---------------------------------------------------------------------------|
B|---3---------------------3----------------------2---------2/3---2----------|
G|-------2-------2------------2-------2--------------2---2-------------------|
D|---0-------0------0------0------0-------0----------------------------------|
A|------------------------------------------------0--------------------------|
E|---------------------------------------------------------------------------|

[Chorus]
e|-------------------------------------------------------------------------------|
B|--3---------2-------2--------3------2-----2------3----2----3-----2------2/3-2--|
G|--0---------2-------3--------0------2-----3------0----2----4-----2---2---------|
D|--------------------0---------------------0------------------------------------|
A|------------0-----------------------0-----------------0----2-----0-------------|
E|--3--------------------------3-------------------3-----------------------------|

e|-------------------------------------------------------------------------------|
B|--3---------2-------2--------3------2-----3------3----3----2-----2-------------|
G|--0---------2-------3--------0------2-----4------0----0----2-----2-------------|
D|--------------------0----------------------------------------------------------|
A|------------0-----------------------0-----2----------------0-------------------|
E|--3--------------------------3-------------------3-----------------------------|

[Verse]
e|---------------------------------------------------------------------------|
B|---0h3---3----2---0-----0h3----3----2---0-----3----------------------------|
G|--------------------------------------------------2------2-----------------|
D|----------------------------------------------0------0-------0-------------|
A|---------------------------------------------------------------------------|
E|---3--------------------3--------------------------------------------------|

e|---------------------------------------------------------------------------|
B|-3-------------------0h3----3---2---0-----0h3----3---2---0-----------------|
G|-----2------2--------------------------------------------------------------|
D|-0------0------0-----------------------------------------------------------|
A|---------------------------------------------------------------------------|
E|---------------------3--------------------3--------------------------------|

e|---------------------------------------------------------------------------|
B|---3---------------------3----------------------2---------2/3---2----------|
G|-------2-------2------------2-------2--------------2---2-------------------|
D|---0-------0------0------0------0-------0----------------------------------|
A|------------------------------------------------0--------------------------|
E|---------------------------------------------------------------------------|            
Submit corrections


        A Simple Song lessons Hard to play? Try these video lessons and learn fast A Simple Song lessons
        
↑ Back to top | Tablatures and chords for acoustic guitar and electric guitar, ukulele, drums are parodies/interpretations of the original songs. You may use it for private study, scholarship, research or language learning purposes only