Home » C » Chris Sligh »

Chris Sligh - Empty Me Tabs

Artists:  A B C D E F G H I J K L M N O P Q R S T U V W X Y Z # 

Empty Me Tabs

(ver. 1) Click to play this song!
Chris Sligh
Chris Sligh - Empty Me

This tab is pretty close, there is so much blending in the song, that it is hard to hear
a lot of the exact harmonies, so I think there are probably a few chord variations I am
missing that hold the thing together, the solos are pretty close, they should at least
give you an idea of where you should be and what you should be playing. Enjoy!

Capo 1 (Chords relative to this)
   D   Dsus2 Asus4   A     G     Bm
E|-2-----0-----0-----0-----3-----2---------------------------------------------|
B|-3-----3-----3-----2-----3-----2---------------------------------------------|
G|-2-----2-----2-----2-----0-----2---------------------------------------------|
D|-0-----0-----2-----2-----0-----4---------------------------------------------|
A|-0-----0-----0-----0-----x-----4---------------------------------------------|
E|-0-----0-----0-----0-----3-----2---------------------------------------------|

(During the Chorus, use the 'power chord' variations of these chords)

Intro:

E|-----------------------------------------------------------------------------|
B|----7-5-7h8p7-5-7----7-5-7h8p7-5s10--10s2h3-0--------------------------------|
G|-----------------------------------------------------------------------------|
D|-----------------------------------------------------------------------------|
A|-----------------------------------------------------------------------------|
E|-----------------------------------------------------------------------------|

I’ve had just enough of the spotlight, when it burns bright

To see how it gets in the blood

D
   And I’ve tasted my share of the sweet life, and the wild ride
Dsus2                    Asus4        A
   And found a little is not quite enough
    Dsus2
I know how I can stray
        Dsus2
And how fast my heart could change

       D
Empty me
       G
Of the selfishness inside
       Bm      A            G
Every vain ambition and the poison of my pride
        D                G
And any foolish thing my heart holds to
       Bm         A                  G
Lord empty me  so I can be filled with you

Short solo post chorus:
E|-----------------------------------------------------------------------------|
B|----7-5-7h8p7-5-7--s10-2h3-0-------------------------------------------------|
G|-----------------------------------------------------------------------------|
D|-----------------------------------------------------------------------------|
A|-----------------------------------------------------------------------------|
E|-----------------------------------------------------------------------------|

D                               G                    D
   I’ve seen just enough of the quick buys, of the best lies
Dsus2                         Asus4        A
   To know how prodigals could be drawn away
                   Dsus2
I know how I can stray
        Dsus2
And how fast my heart could change

       D
Empty me
       G
Of the selfishness inside
       Bm      A            G
Every vain ambition and the poison of my pride
        D                G
And any foolish thing my heart holds to
       Bm         A                  G
Lord empty me  so I can be filled with you

Bridge:
          Bm            A              G               G
Cause everything is a lesser thing compared to you, compared to you
          Bm            A              G                      (solo)D  G  D
Cause everything is a lesser thing compared to you so I surrender all

Solo Over Bridge
E|---9b10-8b9--6b7------9b10-11b12--12-----------------------------------------|
B|-------------------------------------14p12-----------------------------------|
G|-----------------------------------------------------------------------------|
D|-----------------------------------------------------------------------------|
A|-----------------------------------------------------------------------------|
E|-----------------------------------------------------------------------------|

Solo
E|------14--14-12-14-17-14------14--14-12-14-17-14----12---------------------------------------|
B|-------------------------------------------------------12-12-12s14-14s7---7--7-----7h10p7----|
G|--------------------------------------------------------------------------------9------------|
D|---------------------------------------------------------------------------------------------|
A|---------------------------------------------------------------------------------------------|
E|---------------------------------------------------------------------------------------------|


Empty me Of the selfishness inside

Every vain ambition and the poison of my pride

       D
Empty me
       G
Of the selfishness inside
       Bm      A            G
Every vain ambition and the poison of my pride
        D                G
And any foolish thing my heart holds to
       Bm         A                  G
Lord empty me  so I can be
       Bm         A              G               D       G
Lord empty me something so I can be filled with you
             D      G
Filled with you
       D
Empty me
            
Submit corrections

↑ Back to top | Tablatures and chords for acoustic guitar and electric guitar, ukulele, drums are parodies/interpretations of the original songs. You may use it for private study, scholarship, research or language learning purposes only