Home » C » Chris Rice »

Chris Rice - Come To Jesus Tabs

Artists:  A B C D E F G H I J K L M N O P Q R S T U V W X Y Z # 

Come To Jesus Tabs

(ver. 2) Click to play this song!
Chris Rice
                e|----------------------------------------------------------------------------|
B|-----------------------------------------------------------------------0---0|
G|---------------0---0--------------------------------0----0----2---2---------|
D|--2----2---3----------2-----------------0--0------------------0--------0----|
A|--3--------3-------2------2----2---3-------2---0----0-----------------------|
E|--------------------------3-------------------------------------------------|
   weak and wounded sinner lost and left to die so raise your head for love is
e|---------------------------------------------------------------------------|
B|--0-----------1---0--1------1---0--1------1---0--1-------------------------|
G|---------------------------------------------------------------------------|
D|--2---3--0----2--------2-------------3----3--------2-0----------2----2-----|
A|---------------------3------3--------------------3-3---3----3---3----------|
E|---------1---------------------------1---------------3---------------------|
   passing by come to Jesus come to Jesus come to Jesus and live now your
e|---------------------------------------------------------------------------|
B|-------------------------------------------------------------0--0---0------|
G|------0---0-------------------------------0---0-----2----2---------------0-|
D|-3-----------2------------------0--0----------------0--------0------2----2-|
A|-3--------2------3-----2--2--3-----2--0---0--------------------------------|
E|-----------------3-----------3---------------------------------------------|
   burdens lifted and carried far away and precious blood has washed away the
e|---------------------------------------------------------------------------|
B|------------1---0-1-------1---0--1------1---0--1---------------------------|
G|--------0------------------------------------------------------------------|
D|---2--------2--------2-------------3----3--------2-0----------3---3--4-4---|
A|------------------3-------3--------------------3-3---3----3---4------4-----|
E|-----------------------------------1---------------3-----------------------|
   stain so sing to Jesus sing to Jesus sing to Jesus and live like a newborn
e|---------------------------------------------------------------------------|
B|---------------------------------------------------------------------------|
G|-1-3--------------------------------------1---1---3----3-----------------1-|
D|-3-------------------------1------4--4----1-------1----1----4----4---3-----|
A|---4---4-----3-3--4----4---3---------4-------------------------------3-----|
E|-----------------------1--------4------------------------------------------|
   baby don't be afraid to crawl remember when we walk some times we fall so
e|---------------------------------------------------------------------------|
B|--2----1--2-----2----1---2-----2---1--2------------------------------------|
G|--1-------1----------1---3---------3---------------------------------------|
D|------------3---3----------4---4------3-1------------3-----3----3---4---4--|
A|---------------------------4------------1---4----4---------4--------4------|
E|---------------------------------------------------------------------------|
   fall on Jesus fall on Jesus fall on Jesus and live some times the way is
e|---------------------------------------------------------------------------|
B|---------------------------------------------------------------------------|
G|--1--3---------------------------------------------1---1---3---3----3------|
D|--3----------------------------1----1------4---4---1-------1--------1----4-|
A|-----4---4----3----3-----4----------3----------4---------------------------|
E|-------------------------1--------------4----------------------------------|
   lonely and steep and filled with pain so if your sky is dark and pours the
e|---------------------------------------------------------------------------|
B|------------2---1--2-----2---1--2-----2---1--2-----------------------------|
G|-------1----1------1---------1--3---------3----------------3--0----3----0--|
D|---3-----------------3---3--------4---4------3-1-------------------3----3--|
A|---3------------------------------4------------1---4----4------------------|
E|---------------------------------------------------------------------------|
   rain then cry to Jesus cry to Jesus cry to Jesus and live o and when your
e|---------------------------------------------------------------------------|
B|----------------1--------------------------------------------------1-------|
G|---1-----3---3----------------3----2----2---------1---1---3-----3--3-------|
D|---------3---------1---0-0----3---------1---------3------------------------|
A|-----------------------1---------------------1-----------------------------|
E|---------------------------------------------------------------------------|
   love spills over and music fills the night and when you can't contain
e|----------------------------------------------------------------------------|
B|--1---1---------------4----3---4-----4-----3---4------4----3---4-----4----4-|
G|-----------2------3---3--------3-0-------------5-1----5----4----------------|
D|--1-----------3----------------------3---------------------------3---3----3-|
A|--------------1-------------------------------------------------------------|
E|----------------------------------------------------------------------------|
   your joy inside so dance for Jesus dance for Jesus dance for Jesus and live            
Submit corrections

↑ Back to top | Tablatures and chords for acoustic guitar and electric guitar, ukulele, drums are parodies/interpretations of the original songs. You may use it for private study, scholarship, research or language learning purposes only