» » »

Chris Isaak - Go Walking Down There Chords

Artists:  A B C D E F G H I J K L M N O P Q R S T U V W X Y Z # 

Go Walking Down There Chords

(ver. 1) Click to play this song!
Chris Isaak
 Rating:
4.2/5 (30 votes)

 Go Walking Down There lessons Tabs too difficult? Try these video lessons and learn fast
 
                [Intro]
e|--------------------|--------------------|--------------------|---------------|
B|--------------------|-----------3-h4--0--|--------------------|----------3----|
G|----------------0---|-------3------------|-----------------0--|-------3-------|
D|------------2-------|----3---------------|-------------2------|----3----------|
A|----2---3-----------|-0------------------|----2----3----------|-0-------------|
E|-0------------------|--------------------|-0------------------|---------------| x2

| h   Hammer-on

Em C A G Em C A G Em C A G Em C A G Em

[Verse 1]
Em  C      A       G Em
I go walking down there
    C      A       G Em
I go searching down there
    C      A       G Em  C  A   G Em
There's nothing left for you and me
    C      A       G Em
I go walking down there
    C       A      G Em
I go searching down there
    C       A      G    B7
But nobody there remembers me

[Walk-Down from B7 to Em]
e|----------------0---|
B|----------------0---|
G|----------------0---|
D|----------------2---|
A|-2--0-----------2---|
E|--------3---2---0---|

[Bridge 1]
Em         B7           Em
It doesn't matter now to me
        C
'Cause I lost my baby
Em            B7           Em
Nothing means that much to me
         C        B7  Em
Without my baby anyway

[Walk-Down from Em to C]
e|----------------0---|
B|----------------1---|
G|----------------0---|
D|----------------2---|
A|-2--0-----------3---|
E|--------3---0---x---|

[Chorus 1]
 C     A    G Em   C   A   G Em
Uh oh  (uh oh),   Uh oh  (uh oh)
     C      A            G Em
Look at all you lucky people
     C      A          G Em
Think of all the things you do
     C      A       G Em
Look at all you happy people
     C      A       G Em
Wish I could be like you
  C     A     G Em   C   A    G Em
Uh oh   (uh oh),   Uh oh    (uh oh)

[Verse 2]
    C      A       G Em
I go walking down there
    C      A       G Em
I go searching down there
    C      A       G          B7
There's nothing left for you and me

[Bridge 2]
Em         B7            Em
It doesn't matter now to me
        C
'Cause I lost my baby
Em            B7           Em
Nothing means that much to me
        C        B7 Em
Without my baby anyway

[Chorus 2]
 C     A    G Em   C   A   G Em
Uh oh  (uh oh),   Uh oh  (uh oh)
     C         A        G Em
Look at all you lucky people
     C         A        G Em
Look of all the things you do
     C         A        G Em
Look at all you happy people
     C         A        G Em
Wish I could be like you
     C         A         G Em
Look at all your smiling faces
     C         A         G Em
Think of all the things you've done
     C         A         G Em
Look at all you happy people
     C         A         G Em
And I've lost my only one
  C   A   G Em   C   A   G Em
Uh oh  (uh oh),  Uh oh  (uh oh)
  C   A  G Em
Uh oh (uh oh)

[Outro]
Em C A G Em C A G Em C A G Em
            
Submit corrections


        Go Walking Down There lessons Hard to play? Try these video lessons and learn fast Go Walking Down There lessons
        
↑ Back to top | Tablatures and chords for acoustic guitar and electric guitar, ukulele, drums are parodies/interpretations of the original songs. You may use it for private study, scholarship, research or language learning purposes only