Home » C » Chris Isaak »

Chris Isaak - Blue Hotel Tabs

Artists:  A B C D E F G H I J K L M N O P Q R S T U V W X Y Z # 

Blue Hotel Tabs

(ver. 1) Click to play this song!
Chris Isaak
[Intro]
 
e|--5----------------------5--------5----------------------5------------------------------|
B|--5--------5----7--------6--------5--------5----7--------6------------------------------|
G|--5--------5----7--------7--------5--------5----7--------7------------------------------|
D|--7--------7----7--------7--------7--------7----7--------7------------------------------|
A|--7--------7----5--------5--------7--------7----5--------5------------------------------|
E|--5--------5----------------------5--------5--------------------------------------------|
 
e|--------------1--0-------------1--0-------------1--0-----5---------------------------|
B|--------------1--0-------------1--0-------------1--0-----5---------------------------|
G|--------------2--1-------------2--1-------------2--1-----5---------------------------|
D|------2-3-2---3--2------2-3-2--3--2------2-3-2--3--2-----7---------------------------|
A|--0-3---------------0-3--------------0-3-----------------7---------------------------|
E|---------------------------------------------------------5---------------------------|
 
 
[Verse 1]
 
e|--5--------5--5----5--------5--------5--------5--5----5--------5-----------------|
B|--5--------5--5----7--------6--------5--------5--5----7--------6-----------------|
G|--5--------5--5----7--------7--------5--------5--5----7--------7-----------------|
D|--7--------7--7----7--------7--------7--------7--7----7--------7-----------------|
A|--7--------7--7----5--------5--------7--------7--7----5--------5-----------------|
E|--5--------5--5----------------------5--------5--5-------------------------------|
 
e|-------------1-----1-----0-----0------0------------------------------------|
B|--1----4-------4-----4-----0-----0----0------------------------------------|
G|----2----2-------2-----2-----1-----1--1------------------------------------|
D|------3----3---------------------------------------------------------------|
A|---------------------------------------------------------------------------|
E|---------------------------------------------------------------------------|
 
 
[Chorus]
 
e|----------5-8-5--8--------5---5--------------------------------------------|
B|--------5-----------5b5--3-3-3-3--1~---------------------------------------|
G|--5h7h5--------------------------------------------------------------------|
D|---------------------------------------------------------------------------|
A|---------------------------------------------------------------------------|
E|---------------------------------------------------------------------------|
 
e|----------5-8-12-8-------5---5---------------------------------------------|
B|--------5-----------5b5-3-3-3-3--1-----------------------------------------|
G|--5h7h5--------------------------------------------------------------------|
D|---------------------------------------------------------------------------|
A|---------------------------------------------------------------------------|
E|---------------------------------------------------------------------------|
 
 
[Verse 2]
 
e|--5-----------------------------------------------------------------------------|
B|--5------------1-3-3~---3/1-1/5-5-9-9-10~-----------1-3-3~--9/7-7/12-10-9-7-----|
G|--5----------2------------------------------------2-----------------------------|
D|--7--------2------------------------------------2-------------------------------|
A|--7-----------------------------------------------------------------------------|
E|--5-----------------------------------------------------------------------------|
 
e|--------------1-----1------0-----0-------0------------------------------------------|
B|--1-----4-------4-----4------0-----0-----0------------------------------------------|
G|----2-----2-------2-----2------1-----1---1------------------------------------------|
D|------3-----3-----------------------------------------------------------------------|
A|------------------------------------------------------------------------------------|
E|------------------------------------------------------------------------------------|
 
 
[Chorus]
 
e|--5-5--5---5-5---5-5----5-5--5---5-5---5-5--------5-5--5---5-5---5-5--|
B|--5-5--5---5-5---5-5----5-5--5---5-5---5-5--------7-7--7---7-7---7-7--|  STRUMMING PATTERN:
G|--5-5--5---5-5---5-5----5-5--5---5-5---5-5--------7-7--7---7-7---7-7--| (down,down,up,down,
D|--7-7--7---7-7---7-7----7-7--7---7-7---7-7--------7-7--7---7-7---7-7--|  down,up,down)
A|--7-7--7---7-7---7-7----7-7--7---7-7---7-7--------5-5--5---5-5---5-5--|
E|--5-5--5---5-5---5-5----5-5--5---5-5---5-5----------------------------|
 
e|--5-5--5---5-5---5-5--|
B|--6-6--6---6-6---6-6--|
G|--7-7--7---7-7---7-7--|  REPEAT WHOLE SECTION
D|--7-7--7---7-7---7-7--|  TWICE
A|--5-5--5---5-5---5-5--|
E|----------------------|
 
 
[Bridge]
 
e|-------------1-0--------------1-0--------------1-0--|
B|-------------1-0--------------1-0--------------1-0--|
G|-------------2-1--------------2-1--------------2-1--|
D|------2-3-2--3-2-------2-3-2--3-2-------2-3-2--3-2--|
A|--0-3--------------0-3--------------0-3-------------|
E|----------------------------------------------------|
 
e|--12-12-12-10-10-8-8-8-8-10-8-8-5~--5-0-5---------------------------------------|
B|------------------------------------------9-5-----------------------------------|
G|--------------------------------------------------------------------------------|
D|--------------------------------------------------------------------------------|
A|--------------------------------------------------------------------------------|
E|--------------------------------------------------------------------------------|
 
e|---------------------------------------------------------------------------|
B|-----------------------------12-13-12-10-12-5------------------------------|
G|--9-9-9-7-7-5-5-5-5-7-7-5-14-----------------------------------------------|
D|---------------------------------------------------------------------------|
A|---------------------------------------------------------------------------|
E|---------------------------------------------------------------------------|
 
e|---------------------------------------------------------------------------------------|
B|---------------------------------------------------------------------------------------|
G|---5-5-5-5-5-5---9-9-9-9---------------------------------------------------------------|
D|---------------------------------------------------------------------------------------|
A|--3-3-3-3-3-3---7-7-7--7---------------------------------------------------------------|
E|-----------------------------~---------------------------------------------------------|
 
 
 
[Verse 3]
 
e|--5------------5----5------------5---------------------------------------------------|
B|--5----5--7----6----5----5--7----6---------------------------------------------------|
G|--5----5--7----7----5----5--7----7---------------------------------------------------|
D|--7----7--7----7----7----7--7----7---------------------------------------------------|
A|--7----7--5----5----7----7--5----5---------------------------------------------------|
E|--5----5------------5----5-----------------------------------------------------------|
 
e|---------------------------------------------|
B|---------------------------------------------|
G|---------------------------------------------|  (repeat muted bass section
D|---------------------------------------------|   twice)
A|---------------------------------------------|
E|--5-5-5-5-5-5-5-5-5-5--2-2-2-2-2--1-1-1-1-1--|
 
 
e|-----------------------------------------------------------------------------|
B|-----------------------------------------------------------------------------|
G|-----------------------------------------------------------------------------|
D|-----------------------------------------------------------------------------|
A|-----------------------------------------------------------------------------|
E|--3333333333333333--777777777~-----------------------------------------------|
 
 
[Chorus]
 
e|----------5-8-5--8--------5---5------------------------------------------------------|
B|--------5-----------5b5--3-3-3-3--1~-------------------------------------------------|
G|--5h7h5------------------------------------------------------------------------------|
D|-------------------------------------------------------------------------------------|
A|-------------------------------------------------------------------------------------|
E|-------------------------------------------------------------------------------------|
 
e|----------5-8-12-8-------5---5--------------------------------------------------------|
B|--------5-----------5b5-3-3-3-3--1----------------------------------------------------|
G|--5h7h5-------------------------------------------------------------------------------|
D|--------------------------------------------------------------------------------------|
A|--------------------------------------------------------------------------------------|
E|--------------------------------------------------------------------------------------|
 
 
 
[Outro]
 
e|--0-0--0-0--0-0--0-0----2-2--2-2----5----0--|
B|--1-1--1-1--1-1--1-1----3-3--3-3----6----1--|
G|--2-2--2-2--2-2--2-2----2-2--2-2----7----2--|
D|--2-2--2-2--2-2--2-2----0-0--0-0----7----2--|
A|-----------------------------------------0--|
E|--------------------------------------------|
            
Submit corrections

↑ Back to top | Tablatures and chords for acoustic guitar and electric guitar, ukulele, drums are parodies/interpretations of the original songs. You may use it for private study, scholarship, research or language learning purposes only