» » »

Chris Devotion And The Expectations - Our Mistake Tabs

Artists:  A B C D E F G H I J K L M N O P Q R S T U V W X Y Z # 

Our Mistake Tabs

(ver. 1) Click to play this song!
Chris Devotion And The Expectations
 Rating:
4/5 (4 votes)

 Our Mistake  lessons Tabs too difficult? Try these video lessons and learn fast
 
                              Verse                                  Bridge
e---------------------------------------|-------------------------------
B---4---------9---------5---------------|-------------------------------
G---4---------9---------6---------------|------5-------7------8---------
D---4---------9---------6---------------|------6-------8------9---------
A---2---------7---------4---------------|------6-------8------9---------
E---------------------------------------|------4-------6------7---------

    B         E         C#m                     G#      A#     B



              Chorus                             At the very end of the song he slides through these chords
                                                 a few times:
                                                

e-----------------------------------------|----------------------------------------------------------
B------------5--------9-------------------|------5---7---8---9---------------------------------------
G------------6--------9-------------------|------6---7---8---9---------------------------------------
D------------6--------9-------------------|------6---7---8---9---------------------------------------
A------------4--------7-------------------|------4---5---6---7---------------------------------------
E-----------------------------------------|----------------------------------------------------------

             C#m      E                         C#m  D   D#  E


Verse

[(...) where I don't know the lyric]


B
Hold me down, my heart is breaking

E
.....in my belly means it is aching 
      
     C#m
From seeing you again

    D
You used to be my friend

Bridge: G# A# B

Chorus: C#m E


Listen to the rhythm to catch how they play it. Big thrashy strums, use power/bar chords whatever sounds best.
Here is the beautiful lead part at the end, again listen to the song and play it right! 

e------------------------------------------------------------------------------------------------------------
B------------------------------------------------7-------5---------------------------------------------------
G--------1------4-----------4-------6-------------------------8------4----------------------4-----6----------
D-----4-----4-----------6-------6--------------------------------------------------------6-----6-------------
A------------------------------------------------------------------------------------------------------------
E------------------------------------------------------------------------------------------------------------

e------------------------------------------------------------------------------------------------------------
B-------7--5-----5-------------------------------------------------------------------------------------------
G-------------8-----8---6---4----------4-----6---------------------------------------------------------------
D-----------------------------------6-----6------------------------------------------------------------------
A------------------------------------------------------------------------------------------------------------
E------------------------------------------------------------------------------------------------------------
            
Submit corrections


        Our Mistake  lessons Hard to play? Try these video lessons and learn fast Our Mistake  lessons
        
↑ Back to top | Tablatures and chords for acoustic guitar and electric guitar, ukulele, drums are parodies/interpretations of the original songs. You may use it for private study, scholarship, research or language learning purposes only