» » »

Chris De Burgh - Rose Of England Tabs

Artists:  A B C D E F G H I J K L M N O P Q R S T U V W X Y Z # 

Rose Of England Tabs

(ver. 2) Click to play this song!
Chris De Burgh
 Rating:
4/5 (4 votes)

 Rose Of England lessons Tabs too difficult? Try these video lessons and learn fast
 
                There is 2 guitars in this, A 12 string and A 6 string acoustic.
12 string comes in first.

12 String Picking Hear my voice and listen well
******************
Em G
[-------------------------------------------------------|------------3-----]
[---8---------8-----------------8-----------------8-----|--------------3---]
[-9---9-----9---9---------9---9---9---------9---9---9---|-----4---4------4-]
[-------9---------9-----9---9-------9-----9---9-------9-|---5---5----------]
[---------------------7-----------------7---------------|------------------]
[-------------------------------------------------------|-3----------------]

A C D Em G 
[-----------5-----|---------|---5-----|-----------------|---------3--------]
[-------------5---|-----5---|-----5---|---------8-------|-----------3---3--]
[-----6---6-----6-|-------5-|-7-----7-|-----9-----9---9-|-----4-------4----]
[---7---7---------|---5-----|---------|---9---9-----9---|---5---5----------]
[-----------------|-3-------|---------|-7---------------|------------------]
[-5---------------|---------|---------|-----------------|-3----------------]

A C D
[---------5-------|---------|---5-----|--Continue with --------------------]
[-----------5---5-|-----5---|-----5---|----12 sting------------------------]
[-----6-------6---|-------5-|-7-----7-|------throughout the ---------------]
[---7---7---------|---5-----|---------|--------song-with above picking-----]
[-----------------|-3-------|---------|------------------------------------]
[-5---------------|---------|---------|-6 string comes in here, see below--]



6 String Guitar
***************
Em She was loverly G
[---------0----------------0----------------0-------|---------3------------]
[-----0-------0--------0-------0--------0-------0---|-----0-------0--------]
[-------0---0---0--------0---0---0--------0---0---0-|---0---0---0---0------]
[---2----------------2----------------2-------------|----------------------]
[---------------------------------------------------|----------------------]
[-0----------------0----------------0---------------|-3--------------------]

A C D Em G
[-----------------|---------|-----2---|---------0-------|----------3-------]
[-----------2-----|-------1-|-------3-|-----0-------0---|------0-------0---]
[-----2---2---2---|-----0---|---2-----|-------0---0---0-|----0---0---0---0-]
[---2---2-------2-|---2-----|-0-------|---2-------------|------------------]
[-0---------------|-3-------|---------|-----------------|------------------]
[-----------------|---------|---------|-0---------------|-3----------------]


A C D
[-----------------|---------|-----2---|-Just continue ----------------]
[-----------2-----|-------1-|-------3-|----with both guitars picking--]
[-----2---2---2---|-----0---|---2-----|------------Ad Lib-------------]
[---2---2-------2-|---2-----|-0-------|-------------------------------]
[-0---------------|-3-------|---------|-------------------------------]
[-----------------|---------|---------|-------------------------------]            
Submit corrections


        Rose Of England lessons Hard to play? Try these video lessons and learn fast Rose Of England lessons
        
↑ Back to top | Tablatures and chords for acoustic guitar and electric guitar, ukulele, drums are parodies/interpretations of the original songs. You may use it for private study, scholarship, research or language learning purposes only