Home » C » Chris Brown »

Chris Brown - Say Goodbye Tabs

Artists:  A B C D E F G H I J K L M N O P Q R S T U V W X Y Z # 

Say Goodbye Tabs

(ver. 2) Click to play this song!
Chris Brown
 Rating:
4/5 (5 votes)
                (Intro)
Chris Brown - Say goodbye
Giezoe

     E    E    E  E  E  E  E   S  S  
E||--9----L-------9--8--L-----11-13-|
B||-----------11-----------9--------|
G||-----(10)------------8-----------|
D||---------------------------------|
A||---------------------------------|
E||---------------------------------|


   E   E    E   E   E    E    E  E   
--14---L---11--14--13--------11--9--|
------------------------------------|
-----------------------(10)---------|
------(13)--------------------------|
------------------------------------|
------------------------------------|


  E   E   E  E  E  E  E   S  S  
--9----------9--8--L-----11-13-|
---------11-----------9--------|
-----10------------8-----------|
-------------------------------|
-------------------------------|
-------------------------------|


   E   E    E   E   E    E    E  E   
--14---L---11--14--13--------11--9--|
------------------------------------|
-----------------------(10)---------|
------(13)--------------------------|
------------------------------------|
------------------------------------|


  E   E   E  E  E  E  E   S  S  
--9----------9--8--L-----11-13-|
---------11-----------9--------|
-----10------------8-----------|
-------------------------------|
-------------------------------|
-------------------------------|


   E   E    E   E   E    E    E  E   
--14---L---11--14--13--------11--9--|
------------------------------------|
-----------------------(10)---------|
------(13)--------------------------|
------------------------------------|
------------------------------------|


   E    E    E  E    E     E   E   E   
--16----L-------9----L------------16--|
------------11-----(11)--------9------|
--------------------------------------|
------(11)---------------(11)---------|
--------------------------------------|
--------------------------------------|


   E   E  E   E   E  E  E  E     
--16---L--9--11---L-----6--8---||
-------------------------------||
---------------------8--------*||
------13----------------------*||
-------------------------------||
-------------------------------||

goes through the whole song

L stands for ,  let ring
(n) ghost note,  you dont have to play it ,  but it sounds better if you do
            
Submit corrections

↑ Back to top | Tablatures and chords for acoustic guitar and electric guitar, ukulele, drums are parodies/interpretations of the original songs. You may use it for private study, scholarship, research or language learning purposes only