Home » C » Chris Brown »

Chris Brown - Forever Tabs

Artists:  A B C D E F G H I J K L M N O P Q R S T U V W X Y Z # 

Forever Tabs

(ver. 2) Click to play this song!
Chris Brown
 Rating:
4.5/5 (8 votes)
                (Intro)
so, hello.. this is my first tab.. i think this is quite sure! hehe..
ym: nelle_laurice

                         INTRO-FOREVER by Chris Brown

e |--12-11----12-11------12-11-----121212---------------------12-11-----|
b |-------12-------14---------12-12------12-14-1414/17-16-14-------14---|
g |---------------------------------------------------------------------|
d |---------------------------------------------------------------------|
a |---------------------------------------------------------------------|
E |---------------------------------------------------------------------|

e |--12-11-----121212--------------------12-11----12-11------121212-----|
b |-------12-12------12-14-1414/17-16-14------14-------12--12-----------|
g |---------------------------------------------------------------------|
d |---------------------------------------------------------------------|
a |---------------------------------------------------------------------|
E |---------------------------------------------------------------------|
            
Submit corrections

↑ Back to top | Tablatures and chords for acoustic guitar and electric guitar, ukulele, drums are parodies/interpretations of the original songs. You may use it for private study, scholarship, research or language learning purposes only