» » »

Children 18 3 - Hey Driftwood Tides Tabs

Artists:  A B C D E F G H I J K L M N O P Q R S T U V W X Y Z # 

Hey Driftwood Tides Tabs

(ver. 1) Click to play this song!
Children 18 3
 Rating:
4.3/5 (6 votes)


 Hey Driftwood Tides lessons Tabs too difficult? Try these video lessons and learn fast
 
                -------------------------------------------------------------------------------
                           Children 18:3 - Hey Driftwood
-------------------------------------------------------------------------------

Firstly, thanks to G4B1 for the bass tab. Helped heaps in figuring out the song
more precisely.

I haven't put in every single strum. Have a listen to the song for the timing.
It's not 100% correct, and there's one guitar part missing for the verse, but
it's pretty much all there and sounds good.

Tuning: Standard


Intro
e|---------------------------------------------------------------------------|
B|---------------------------------------------------------------------------|
G|---5--------------------5---------9----------------------------------------|
D|---5----5----2----3-----5----5----9----------------------------------------|
A|---3----5----2----3-----3----5----7----------------------------------------|
E|--------3----0----1----------3---------------------------------------------|

(lead part over the intro chords)
e|---------------------------------------------------------------------------|
B|--------------------------------------------8------12-----10---------------|
G|---9h10p9-7---------7---------9h10p9-7------x-(x5)-x-(x3)-x-(x8)-----------|
D|------------10-9-10---10---------------10---5------9------7----------------|
A|---------------------------------------------------------------------------|
E|---------------------------------------------------------------------------|

e|---------------------------------------------------------------------------|
B|--------------------------------------------8------12-----13---------------|
G|---9h10p9-7---------7---------9h10p9-7------x-(x5)-x-(x3)-x-(x8)-----------|
D|------------10-9-10---10---------------10---5------9------10---------------|
A|---------------------------------------------------------------------------|
E|---------------------------------------------------------------------------|

Verse
      (clean)                 (dist. & palm mute)
e|--1----0----0----3--|    |----------------------|    |
B|--1----1----1----3--|    |----------------------|    |
G|--2----0----2----0--| x2 |-------5--------------| x2 |
D|--3----2----2----0--|    |--3----5----7----5----|    |
A|--3----3----0----2--|    |--3----3----7----5----|    |
E|--1--------------3--|    |--1---------5----3----|    |

Bridge (1)
e|---------------------------------------------------------------------------|
B|---------------------------------------------------------------------------|
G|--3---------5--------------------------------------------------------------|
D|--3----3----5----5---------------------------------------------------------|
A|--1----3----3----5---------------------------------------------------------|
E|-------1---------3---------------------------------------------------------|

Chorus (1)
e|---------------------------------------------------------------------------|
B|---------------------------------------------------------------------------|
G|--5------------------------------------------------------------------------|
D|--5----7----5----3----7----5----2----3-------------------------------------|
A|--3----7----5----3----7----5----2----3-------------------------------------|
E|-------5----3----1----5----3----0----1-------------------------------------|

Intro
Verse
Bridge (1)

Chorus (2)
e|---------------------------------------------------------------------------|
B|---------------------------------------------------------------------------|
G|--5-----------------------------5------------------------------------------|
D|--5----7----5----3----7----3----5----5-------------------------------------|
A|--3----7----5----3----7----3----3----5-------------------------------------|
E|-------5----3----1----5----1---------3-------------------------------------|

e|---------------------------------------------------------------------------|
B|---------------------------------------------------------------------------|
G|--5------------------------------------------------------------------------|
D|--5----7----5----3----7----5----2----3-------------------------------------|
A|--3----7----5----3----7----5----2----3-------------------------------------|
E|-------5----3----1----5----3----0----1-------------------------------------|

Bridge (2)
e|---------------------------------------------------------------------------|
B|-----------------3---------------------------------------------------------|
G|-------2----3----2---------------------------------------------------------|
D|--3----2----1----0---------------------------------------------------------|
A|--3----0----1--------------------------------------------------------------|
E|--1------------------------------------------------------------------------|

Interlude
e|--0----0----1----3---------------------------------------------------------|
B|--1----0----1----3---------------------------------------------------------|
G|--0----0----2----0---------------------------------------------------------|
D|--2----2----3----0---------------------------------------------------------|
A|--3----2----3----2---------------------------------------------------------|
E|-------0----1----3---------------------------------------------------------|

Chorus (2)
Intro
End

---------------------------
Song Structure
---------------------------

Intro
Verse
Bridge(1)
Chorus(1)
Intro
Verse
Bridge(1)
Chorus(2)
Bridge(2)
Interlude
Chorus(2)
Intro
            
Submit corrections



        Hey Driftwood Tides lessons Hard to play? Try these video lessons and learn fast Hey Driftwood Tides lessons
        
↑ Back to top | Tablatures and chords for acoustic guitar and electric guitar, ukulele, drums are parodies/interpretations of the original songs. You may use it for private study, scholarship, research or language learning purposes only