» » »

Chicago - Color My World Bass

Artists:  A B C D E F G H I J K L M N O P Q R S T U V W X Y Z # 

Color My World Bass

(ver. 1) Click to play this song!
Chicago
 Rating:
4.3/5 (6 votes)
                
Very simple song.  Mostly composed of whole notes in 4/4 time.
Standard Tuning. E-A-D-G



G:---|----------------------------------------------------|
D:---|-----------31-1-----4-4----45-5----8----------------|
A:---|---30-031-1----1---6---45-5----56-6-3-3-33-3---13---|
E:-1-|--1-------------4-4-------------------------01---1--|
      
      (Play this 3 times in a row.)



Everyone,

Thank you for checking this out...I searched for quite a
while to find no tab at all for this bass line.  Well there
was one but this song is not to be played on just one string.
Enjoy!  This is my first tab, so be gentle...

Rick




StormCleanupJobs.com




G:|----||----|----|----|----|----|----|----|----|----|----|----|----|-----||
D:|----||----|----|-31-|1---|--4-|4---|-45-|5---|-8--|----|----|----|----.||
A:|----||-30-|031-|1---|-1--|-6--|-45-|5---|-56-|6-3-|3---|33--|3---|13--.||
E:|1---||1---|----|----|--4-|4---|----|----|----|----|----|----|-01-|--1--||
            
Submit corrections

↑ Back to top | Tablatures and chords for acoustic guitar and electric guitar, ukulele, drums are parodies/interpretations of the original songs. You may use it for private study, scholarship, research or language learning purposes only