» » »

Chevelle - Highlands Apparition Tabs

Artists:  A B C D E F G H I J K L M N O P Q R S T U V W X Y Z # 

Highlands Apparition Tabs

(ver. 2) Click to play this song!
Chevelle
 Rating:
4/5 (4 votes)

 Highlands Apparition lessons Tabs too difficult? Try these video lessons and learn fast
 
                Tuning:  C G C F A D    

Verse:  

D |-------------------------------------|
A |-------------------------------------|
F |-------------------------------------|  
C |-------------------------------------| X4
G |------------------10-10-10-9-9-9-----|
C |---0--0-0-0-0-0----------------------|

D |----------------------------------------------------------|
A |----------------------------------------------------------|
F |----------------------------------------------------------|
C |---9-9-9-9-9-9-9-9---9--9--9--9-9-9---7-7-7-7-7-7-7-7-----|
G |---9-9-9-9-9-9-9-9---10-10-10-9-9-9---7-7-7-7-7-7-7-7-----|
C |---9-9-9-9-9-9-9-9---9--9--9--9-9-9---7-7-7-7-7-7-7-7-----|

D |-------------------------------------|
A |-------------------------------------|
F |-------------------------------------|  
C |-------------------------------------| X4
G |------------------10-10-10-9-9-9-----|
C |---0--0-0-0-0-0----------------------|

D |----------------------------------------------------------|
A |----------------------------------------------------------|
F |----------------------------------------------------------|
C |---9-9-9-9-9-9-9-9-----7-7-7-7-7-7-7-7----7--7--7--7-7-7--|
G |---9-9-9-9-9-9-9-9-----7-7-7-7-7-7-7-7----10-10-10-9-9-9--|
C |---9-9-9-9-9-9-9-9-----7-7-7-7-7-7-7-7----7--7--7--7-7-7--|


Chorus:

D |-----------------------------------------------------------------------------------------|
A |-----------------------------------------------------------------------------------------|
F |------------------------------------------------------7-7-7-7-7-7-7-7--4-4-4-4-4-4-4-4---|
C |---0-0-0-0-0-0-0-0--2-2-2-2-2-2-2-2--5-5-5-5-5-5-5-5--7-7-7-7-7-7-7-7--4-4-4-4-4-4-4-4---|
G |---0-0-0-0-0-0-0-0--2-2-2-2-2-2-2-2--5-5-5-5-5-5-5-5--5-5-5-5-5-5-5-5--2-2-2-2-2-2-2-2---|
C |---0-0-0-0-0-0-0-0--2-2-2-2-2-2-2-2--5-5-5-5-5-5-5-5-------------------------------------|

D |--------------------------------------------------------|
A |--------------------------------------------------------|
F |-------------------------------------5-5-5-5-5-5-5-5----|
C |---5-5-5-5-5-5-5-5--0-0-0-0-0-0-0-0--5-5-5-5-5-5-5-5----|
G |---5-5-5-5-5-5-5-5--0-0-0-0-0-0-0-0--3-3-3-3-3-3-3-3----|
C |---5-5-5-5-5-5-5-5--0-0-0-0-0-0-0-0---------------------|


Verse:  

D |-------------------------------------|
A |-------------------------------------|
F |-------------------------------------|  
C |-------------------------------------| X4
G |------------------10-10-10-9-9-9-----|
C |---0--0-0-0-0-0----------------------|

D |----------------------------------------------------------|
A |----------------------------------------------------------|
F |----------------------------------------------------------|
C |---9-9-9-9-9-9-9-9---9--9--9--9-9-9---7-7-7-7-7-7-7-7-----|
G |---9-9-9-9-9-9-9-9---10-10-10-9-9-9---7-7-7-7-7-7-7-7-----|
C |---9-9-9-9-9-9-9-9---9--9--9--9-9-9---7-7-7-7-7-7-7-7-----|


D |-------------------------------------|
A |-------------------------------------|
F |-------------------------------------|  
C |-------------------------------------| X4
G |------------------10-10-10-9-9-9-----|
C |---0--0-0-0-0-0----------------------|

D |----------------------------------------------------------|
A |----------------------------------------------------------|
F |----------------------------------------------------------|
C |---9-9-9-9-9-9-9-9-----7-7-7-7-7-7-7-7----7--7--7--7-7-7--|
G |---9-9-9-9-9-9-9-9-----7-7-7-7-7-7-7-7----10-10-10-9-9-9--|
C |---9-9-9-9-9-9-9-9-----7-7-7-7-7-7-7-7----7--7--7--7-7-7--|


Chorus:

D |-----------------------------------------------------------------------------------------|
A |-----------------------------------------------------------------------------------------|
F |------------------------------------------------------7-7-7-7-7-7-7-7--4-4-4-4-4-4-4-4---|
C |---0-0-0-0-0-0-0-0--2-2-2-2-2-2-2-2--5-5-5-5-5-5-5-5--7-7-7-7-7-7-7-7--4-4-4-4-4-4-4-4---|
G |---0-0-0-0-0-0-0-0--2-2-2-2-2-2-2-2--5-5-5-5-5-5-5-5--5-5-5-5-5-5-5-5--2-2-2-2-2-2-2-2---|
C |---0-0-0-0-0-0-0-0--2-2-2-2-2-2-2-2--5-5-5-5-5-5-5-5-------------------------------------|

D |----------------------------------------------------------------------------------------|
A |----------------------------------------------------------------------------------------|
F |-------------------------------------5-5-5-5-5-5-5-5--4-4-4-4-4-4-4-4--2-2-2-2-2-2-2-2--|
C |---5-5-5-5-5-5-5-5--0-0-0-0-0-0-0-0--5-5-5-5-5-5-5-5--4-4-4-4-4-4-4-4--2-2-2-2-2-2-2-2--|
G |---5-5-5-5-5-5-5-5--0-0-0-0-0-0-0-0--3-3-3-3-3-3-3-3--2-2-2-2-2-2-2-2--0-0-0-0-0-0-0-0--|
C |---5-5-5-5-5-5-5-5--0-0-0-0-0-0-0-0-----------------------------------------------------|


Interlude:

D |--------------------------------------------------------------------------|
A |--------------------------------------------------------------------------|
F |---------0------------0------------------0------------0-------------------|
C |-----4-----4------4-----4------------4-----4------4-----4-----------------| X2
G |---2---2--------0---0------2-------2---2--------0---0---------------------|
C |-----------------------------------------------------------2------2-2-0---|

D |---------------------------------------------------------------------------|
A |---------------------------------------------------------------------------|
F |---4-4-4-4--7-7-7-7--2-2-2-2--9-9-9-9--4-4-4-4--7-7-7-7--2-2-2-2-----------|
C |---4-4-4-4--7-7-7-7--2-2-2-2--9-9-9-9--4-4-4-4--7-7-7-7--2-2-2-2--2-2-2-2--|
G |---2-2-2-2--5-5-5-5--0-0-0-0--7-7-7-7--2-2-2-2--5-5-5-5--0-0-0-0--2-2-2-2--|
C |------------------------------------------------------------------2-2-2-2--|

D |-----------------------------------------------------------------------|
A |-----------------------------------------------------------------------|
F |---4-4-4-4--7-7-7-7--2-2-2-2--9-9-9-9--4-4-4-4--7-7-7-7----------------|
C |---4-4-4-4--7-7-7-7--2-2-2-2--9-9-9-9--4-4-4-4--7-7-7-7--2-2-2-2-2-2---| X2
G |---2-2-2-2--5-5-5-5--0-0-0-0--7-7-7-9--2-2-2-2--5-5-5-5--2-2-2-2-2-2---|
C |---------------------------------------------------------2-2-2-2-2-2---|

D |--------------------------------------------------------------------------------------|
A |--------------------------------------------------------------------------------------|
F |---4-4-4-4--7-7-7-7--2-2-2-2--9-9-9-9--4-4-4-4--7-7-7-7-------------------------------|
C |---4-4-4-4--7-7-7-7--2-2-2-2--9-9-9-9--4-4-4-4--7-7-7-5--2-2-2-2-2-2-2-2-2-2-2-2-2-2--|
G |---2-2-2-4--5-5-5-5--0-0-0-0--7-7-7-7--2-2-2-2--5-5-5-5--2-2-2-2-2-2-2-2-2-2-2-2-2-2--|
C |---------------------------------------------------------2-2-2-2-2-2-2-2-2-2-2-2-2-2--|


Verse:

D |-------------------------------------|
A |-------------------------------------|
F |-------------------------------------|  
C |-------------------------------------| X4
G |------------------10-10-10-9-9-9-----|
C |---0--0-0-0-0-0----------------------|

D |----------------------------------------------------------|
A |----------------------------------------------------------|
F |----------------------------------------------------------|
C |---9-9-9-9-9-9-9-9-----7-7-7-7-7-7-7-7----7--7--7--7-7-7--|
G |---9-9-9-9-9-9-9-9-----7-7-7-7-7-7-7-7----10-10-10-9-9-9--|
C |---9-9-9-9-9-9-9-9-----7-7-7-7-7-7-7-7----7--7--7--7-7-7--|


Chorus:

D |-----------------------------------------------------------------------------------------|
A |-----------------------------------------------------------------------------------------|
F |------------------------------------------------------7-7-7-7-7-7-7-7--4-4-4-4-4-4-4-4---|
C |---0-0-0-0-0-0-0-0--2-2-2-2-2-2-2-2--5-5-5-5-5-5-5-5--7-7-7-7-7-7-7-7--4-4-4-4-4-4-4-4---|
G |---0-0-0-0-0-0-0-0--2-2-2-2-2-2-2-2--5-5-5-5-5-5-5-5--5-5-5-5-5-5-5-5--2-2-2-2-2-2-2-2---|
C |---0-0-0-0-0-0-0-0--2-2-2-2-2-2-2-2--5-5-5-5-5-5-5-5-------------------------------------|

D |-------------------------------------------------------------------------|
A |-------------------------------------------------------------------------|
F |-------------------------------------------------------------------------|
C |---5-5-5-5-5-5-5-5--0-0-0-0-0-0-0-0--2-2-2-2-2-2-2-2--5-5-5-5-5-5-5-5----|
G |---5-5-5-5-5-5-5-5--0-0-0-0-0-0-0-0--2-2-2-2-2-2-2-2--5-5-5-5-5-5-5-5----|
C |---5-5-5-5-5-5-5-5--0-0-0-0-0-0-0-0--2-2-2-2-2-2-2-2--5-5-5-5-5-5-5-5----|

D |-----------------------------------------------------------------------------------------|
A |-----------------------------------------------------------------------------------------|
F |------------------------------------------------------7-7-7-7-7-7-7-7--4-4-4-4-4-4-4-4---|
C |---0-0-0-0-0-0-0-0--2-2-2-2-2-2-2-2--5-5-5-5-5-5-5-5--7-7-7-7-7-7-7-7--4-4-4-4-4-4-4-4---|
G |---0-0-0-0-0-0-0-0--2-2-2-2-2-2-2-2--5-5-5-5-5-5-5-5--5-5-5-5-5-5-5-5--2-2-2-2-2-2-2-2---|
C |---0-0-0-0-0-0-0-0--2-2-2-2-2-2-2-2--5-5-5-5-5-5-5-5-------------------------------------|

D |----------------------------------------------------------------------------------------|
A |----------------------------------------------------------------------------------------|
F |-------------------------------------5-5-5-5-5-5-5-5--4-4-4-4-4-4-4-4--2-2-2-2-2-2-2-2--|
C |---5-5-5-5-5-5-5-5--0-0-0-0-0-0-0-0--5-5-5-5-5-5-5-5--4-4-4-4-4-4-4-4--2-2-2-2-2-2-2-2--|
G |---5-5-5-5-5-5-5-5--0-0-0-0-0-0-0-0--3-3-3-3-3-3-3-3--2-2-2-2-2-2-2-2--0-0-0-0-0-0-0-0--|
C |---5-5-5-5-5-5-5-5--0-0-0-0-0-0-0-0-----------------------------------------------------|


D |---------------------|
A |---------------------|
F |---------------------|
C |---5-5-5-5-5-5-5-5---|
G |---5-5-5-5-5-5-5-5---|
C |---5-5-5-5-5-5-5-5---|

 
Lyrics:

Verse:
See it, startle, after noon I had to ask or
Dare I, ever know... tell us
We are demented, 
Watch as attention span hold, so fast
Then goes up in smoke

Chorus:
I don't think you're nervous enough
It happened to show its own face
Search for the soulless ends 
Now point him toward rest

Verse 2:
Culprits, shutter
Apparitions left in time if we're honest
Sight unknown... crowing
Frozen, bedroom, Awoke up certain lays a tomb
Her tree holds it, unbeknownst still sending chills

Chorus:
I don't think you're nervous enough
It happened to show its own face
Search for the soulless ends 
Now point him toward rest

Interlude:
You won't find me curling up
A place that should make sense
Well excuse me for this better judgment
Night is so worth waiting for
A blinding scare so cauterizing
Arms are pointing, sit and stare at this
Proof, this living proof
This proof, this living proof

Verse 3:
Suns up, braver
Hands and legs untouched before
We forget, save this... Unaging proof

Chorus:   
I don't think you're nervous enough
It happened to show its own face
Search for the soulless ends 
Now point him toward rest
I don't think you're nervous enough
It happened to show its own face
Search for the soulless ends 
Now point him toward rest
            
Submit corrections


        Highlands Apparition lessons Hard to play? Try these video lessons and learn fast Highlands Apparition lessons
        
↑ Back to top | Tablatures and chords for acoustic guitar and electric guitar, ukulele, drums are parodies/interpretations of the original songs. You may use it for private study, scholarship, research or language learning purposes only