» » »

Chevelle - Door To Door Cannibals Tabs

Artists:  A B C D E F G H I J K L M N O P Q R S T U V W X Y Z # 

Door To Door Cannibals Tabs

(ver. 2) Click to play this song!
Chevelle
 Rating:
4.1/5 (15 votes)

 Door To Door Cannibals  lessons Tabs too difficult? Try these video lessons and learn fast
 
                [Intro] 
w/Heavy Distortion
D|--------------------------------------------------|
A|--------------------------------------------------|
F|--------------------------------------------------|
C|-2h3p2-22-22-22-200-2h3p2-22-25-55-533------------|
G|-2h3p2-22-22-22-200-2h3p2-22-25-55-533------------|
C|-2h3p2-22-22-22-200-2h3p2-22-25-55-533------------|

D|--------------------------------------------------|
A|---------------------------------------Pick Slide-|
F|--------------------------------------------------|
C|-2h3p2-22-22-22-200-2h3p2-22-25-55-533------------|
G|-2h3p2-22-22-22-200-2h3p2-22-25-55-533------------|
C|-2h3p2-22-22-22-200-2h3p2-22-25-55-533------------|

[Verse] 
w/Distortion
D|--------------------------------------------------|
A|--------------------------------------------------|
F|--------------------------------------------------| x4
C|-2h3p2-22-22-22-200-2h3p2-22-25-55-533------------|
G|-2h3p2-22-22-22-200-2h3p2-22-25-55-533------------|
C|-2h3p2-22-22-22-200-2h3p2-22-25-55-533------------|

[Pre-Chorus] 
w/Distortion
D|-------------------------------------------|
A|-------------------------------------------|
F|-------------------------------------------| x2
C|-20-202320--20-235323-20-202320--20-235323-|
G|-20-202320--20-235323-20-202320--20-235323-|
C|-20-202320--20-235323-20-202320--20-235323-|
PM ** ******  ** ****** ** ******  ** ******

[Chorus] 
w/Distortion
D|---------------------------------------------------------|
A|---------------------------------------------------------|
F|-99--999--999--999-xx-9\7-7-0-22--222--222--222-xx-2-0-0-|
C|-99--999--999--999-xx-9\7-7-0-22--222--222--222-xx-2-0-0-|
G|-77--777--777--777-xx-7\5-5-0-22--222--222--222-xx-2-0-0-|
C|---------------------------------------------------------|

[Verse] 
w/Distortion
D|--------------------------------------------------|
A|--------------------------------------------------|
F|--------------------------------------------------| x4
C|-2h3p2-22-22-22-200-2h3p2-22-25-55-533------------|
G|-2h3p2-22-22-22-200-2h3p2-22-25-55-533------------|
C|-2h3p2-22-22-22-200-2h3p2-22-25-55-533------------|

[Pre-Chorus] 
w/Distortion
D|-------------------------------------------|
A|-------------------------------------------|
F|-------------------------------------------| x2
C|-20-202320--20-235323-20-202320--20-235323-|
G|-20-202320--20-235323-20-202320--20-235323-|
C|-20-202320--20-235323-20-202320--20-235323-|
PM ** ******  ** ****** ** ******  ** ******

[Chorus] 
w/Distortion
D|---------------------------------------------------------|
A|---------------------------------------------------------|
F|-99--999--999--999-xx-9\7-7-0-22--222--222--222-xx-2-0-0-|
C|-99--999--999--999-xx-9\7-7-0-22--222--222--222-xx-2-0-0-|
G|-77--777--777--777-xx-7\5-5-0-22--222--222--222-xx-2-0-0-|
C|---------------------------------------------------------|

[Pre-Solo 1] 
w/ Wah Wah & Distortion
D|-------------------------------|
A|-------------------------------|
F|-999999999999999999999999------| x2
C|-------------------------2-0-0-|
G|-------------------------2-0-0-|
C|-------------------------2-0-0-|

[Pre-Solo 2] 
w/Distortion (The bass plays this part)
D|-------------------------------------------|
A|-------------------------------------------|
F|-------------------------------------------|
C|-------------------------------------------|
G|-------------------------------------------|
C|-20-202320--20-235323-20-202320--20-235323-|

(The guitar now joins in)
D|-------------------------------------------|
A|-------------------------------------------|
F|-------------------------------------------|
C|-------------------------------------------|
G|-------------------------------------------|
C|-20-202320--20-235323-20-202320--20-235323-|
PM ** ******  ** ****** ** ******  ** ******

(2 guitar play this part)
D|-------------------------------------------|
A|-------------------------------------------|
F|-------------------------------------------|
C|-20-202320--20-235323-20-202320--20-235323-|
G|-20-202320--20-235323-20-202320--20-235323-|
C|-20-202320--20-235323-20-202320--20-235323-|
PM ** ******  ** ****** ** ******  ** ******

[Solo] 
w/Wah Wah & Distortion
D|---------------------------------------|
A|-7777777777-\/-8888888888-\/-999999999-|
F|---------------------------------------|
C|---------------------------------------|
G|---------------------------------------|
C|---------------------------------------|

D|-------------1010101010101010-1111111111111111-|
A|-12N-12N-12N-9-9-9-9-9-9-9-9--1010101010101010-|
F|-----------------------------------------------|
C|-----------------------------------------------|
G|-----------------------------------------------|
C|-----------------------------------------------|

D|-------------1111111111111111-1414141414141414-|
A|-12N-12N-12N-9-9-9-9-9-9-9-9--1212121212121212-|
F|-----------------------------------------------|
C|-----------------------------------------------|
G|-----------------------------------------------|
C|-----------------------------------------------|

D|-------------------------------|
A|-15N-15161516-1717171714141414-|
F|-------------------------------|
C|-------------------------------|
G|-------------------------------|
C|-------------------------------|

D|----------------------------|
A|-12N-14N-15N-16N-17N-18N-/\-|
F|----------------------------|
C|----------------------------|
G|----------------------------|
C|----------------------------|

[Final Chorus] 
w/Distortion 
Rhthym
D|---------------------------------------------------------|
A|---------------------------------------------------------|
F|-99--999--999--999-xx-9\7-7-0-22--222--222--222-xx-2-0-0-|
C|-99--999--999--999-xx-9\7-7-0-22--222--222--222-xx-2-0-0-|
G|-77--777--777--777-xx-7\5-5-0-22--222--222--222-xx-2-0-0-|
C|---------------------------------------------------------|

Lead
D|-02320-53232-02320-53230-|
A|-------------------------|
F|-------------------------| x2
C|-------------------------|
G|-------------------------|
C|-------------------------|

D|---------------------------------------------------------|
A|---------------------------------------------------------|
F|-99------------xxx-xx-9\7-7-0-22------------xxx-xx-2-0-0-|
C|-99------------xxx-xx-9\7-7-0-22------------xxx-xx-2-0-0-|
G|-77------------xxx-xx-7\5-5-0-22------------xxx-xx-2-0-0-|
C|---------------------------------------------------------|

D|----02320-53232------------------------------------------|
A|---------------------------------------------------------|
F|-99------------xxx-xx-9\7-7-0-22-7/99999999-xxx-xx-2-0-0-|
C|-99------------xxx-xx-9\7-7-0-22------------xxx-xx-2-0-0-|
G|-77------------xxx-xx-7\5-5-0-22-5/77777777-xxx-xx-2-0-0-|
C|---------------------------------------------------------|

End With
D|------|
A|------|
F|------|
C|-3--0-|
G|-3--0-|
C|-3--0-|
            
Submit corrections


        Door To Door Cannibals  lessons Hard to play? Try these video lessons and learn fast Door To Door Cannibals  lessons
        
↑ Back to top | Tablatures and chords for acoustic guitar and electric guitar, ukulele, drums are parodies/interpretations of the original songs. You may use it for private study, scholarship, research or language learning purposes only