» » »

Cheerleader - A Million Ways Chords

Artists:  A B C D E F G H I J K L M N O P Q R S T U V W X Y Z # 

A Million Ways Chords

(ver. 1) Click to play this song!
Cheerleader
 Rating:
4.3/5 (20 votes)

 A Million Ways lessons Tabs too difficult? Try these video lessons and learn fast
 
                
[Intro]
                          let ring
e|-------------------------------------|
B|--10-(10)-(10)-(10)-(10)-12--9-------|
G|-------------------------------------|
D|-------------------------------------|
A|-------------------------------------|
E|-------------------------------------|

|E   |A   |
|E   |A   |

[Verse 1]
E                  B           F#m          A
I used to think I knew what it was I had to do
        E              B               F#m        A
Now my confidence is shaking and I'm shocked

[Pre-Chorus]
        E         B        F#m    A
Now it seems I'm lost maybe I forgot
        E       B     F#m          A
What it is that I          Really want

[Chorus]
       E                          B
And I know what you'll say: get a job, act your age
       F#m                          A
But I know that it's useless, cause I'll never change
        E                       B
I'm a slob, I'm a wreck If you like me like that
      F#m            A
It's okay. How could I complain?

[Instrumental]

Rhythm guitar
|E   |A   |
|E   |A   |

Solo guitar
  E let ring          A               let ring
e|-------------------|-------------------|
B|-9~----------------|-9-------9---------|
G|-------------------|---11-9----11-9-9~-|
D|-------------------|-------------------|
A|-------------------|-------------------|
E|-------------------|-------------------|

  E still ringing     A               let ring
e|-------------------|-------------------|
B|-------------------|-9-------9---------|
G|-(9)~--------------|---11-9----11-9-9~-|
D|-------------------|-------------------|
A|-------------------|-------------------|
E|-------------------|-------------------|



[Verse 2]
         E                         B
And the years pass me by like they always do
         F#m                     A
From the gray winter sky to the song of blue

         E                       B
Do you still think of me as I think of you
     F#m          A
Today

[Pre-Chorus]
        E         B        F#m    A
Now it seems I'm lost maybe I forgot
        E       B     F#m          A
What it is that I          Really want

[Chorus]
       E                          B
And I know what you'll say: get a job, act your age
       F#m                          A
But I know that it's useless, cause I'll never change
        E                       B
I'm a slob, I'm a wreck if you like me like that
       F#m                         A
It's okay, I will change, I will change, I will change
     E                       B
I believe I can change in a million ways
        F#m                        A
But I'm not really sure where to start, I'm afraid
        E                       B
I'm a slob, I'm a wreck if you like me like that
       F#m           A
It's okay. How could I complain?

[Instrumental]

Rhythm guitar
|E   |A   |
|E   |A   |
|E   |A   |
|F#m |B   |

Solo guitar
  E let ring            A              let ring
e|---------------------|---------------------|
B|-9~------------------|-9-------9-----------|
G|---------------------|---11-9----11-9-9~---|
D|---------------------|---------------------|
A|---------------------|---------------------|
E|---------------------|---------------------|

  E still ringing       A               let ring
e|---------------------|---------------------|
B|---------------------|-9-------9-----------|
G|-(9)~----------------|---11-9----11-9-9~---|
D|---------------------|---------------------|
A|---------------------|---------------------|
E|---------------------|---------------------|

  E still ringing       A
e|---------------------|---------------------|
B|---------------------|-9-------9-------9---|
G|-(9)~----------------|---11-9----11-9------|
D|---------------------|---------------------|
A|---------------------|---------------------|
E|---------------------|---------------------|

  F#m                    B
e|---------------------|---------------------|
B|-9-9-9-9-10-9-7----7-|-9/10\9-7-5~---------|
G|---------------------|---------------------|
D|---------------------|---------------------|
A|---------------------|---------------------|
E|---------------------|---------------------|


[Acoustic Chorus]
       E                          B
And I know what you'll say: get a job, act your age
       F#m                          A
But I know that it's useless, cause I'll never change
        E                       B
I'm a slob, I'm a wreck if you like me like that
       F#m    A
It's okay.
     E                       B
I believe I can change in a million ways
        F#m                        C#m*
But I'm not really sure where to start,
         A                B
But without you I'm not going very far

[Instumental and humming]

Rhytm guitar
|E   |B   |F#m  |A   |
|E   |B   |F#m  |A   |
|E   |B   |F#m  |A   |
|E   |B   |

      F#m                         A
It's okay, I will change, I will change, I will change


Humming notes
e|---------------------|---------------------|---------------------|---------------------|
B|---------------------|---------------------|---------------------|---------------------|
G|---------------------|-----------------~---|---------------------|---------------------|
D|---------------------|---------------------|--6------------------|(6)---------4--6--7--|
A|--7------------------|--6----------6--7--9-|---------------------|---------------------|
E|---------------------|---------------------|---------------------|---------------------|

e|---------------------|---------------------|---------------------|---------------------|
B|---------------------|---------------------|---------------------|---------------------|
G|---------------------|-----------------~---|---------------------|---------------------|
D|-9-------------------|---------------------|---------------------|---------------------|
A|---------------------|--6------------------|--7------------------|---------------------|
E|---------------------|---------------------|---------------------|---------------------|



[Outtro]
     E                       B
I believe I can change in a million ways
        F#m                        A
But I'm not really sure where to start, I'm afraid
        E                       B
I'm a slob, I'm a wreck if you like me like that
       F#m           A
It's okay. How could I complain?
            
Submit corrections


        A Million Ways lessons Hard to play? Try these video lessons and learn fast A Million Ways lessons
        
↑ Back to top | Tablatures and chords for acoustic guitar and electric guitar, ukulele, drums are parodies/interpretations of the original songs. You may use it for private study, scholarship, research or language learning purposes only