Home » C » Charli Xcx »

Charli Xcx - Caught In The Middle Bass

Artists:  A B C D E F G H I J K L M N O P Q R S T U V W X Y Z # 

Caught In The Middle Bass

(ver. 1) Click to play this song!
Charli Xcx
[Verse 1] (0:10)
 
G|------------------------------5P-------3-3------------------------|
D|-0--0-3h5----------0--0-3h5---------------------------------------|
A|----------3--0--1-----------3-----0--1----------------------------|
E|------------------------------------------------------------------|
 
G|------------------------------5P----------------------------------|
D|-0--0-3h5----------0--0-3h5---------------------------------------|
A|----------3--0--1-----------3-----0--1----------------------------|
E|------------------------------------------------------------------|
 
 
[Chorus] (0:32)
 
G|------------------------------5P----------------------------------|
D|-0--0-3h5----------0--0-3h5---------------------------------------|
A|----------3--0--1-----------3-----0--1----------------------------| (x2)
E|------------------------------------------------------------------|
 
 
[Post-Chorus] (0:54)
 
G|------------------------------------------------------------------|
D|-0--0-3h5---------------------------------------------------------|
A|----------3--0--1-------------------------------------------------|
E|------------------------------------------------------------------|
 
 
[Verse 2] (1:00)
 
G|------------------------------5P-------3-3------------------------|
D|-0--0-3h5----------0--0-3h5---------------------------------------|
A|----------3--0--1-----------3-----0--1----------------------------| (x2)
E|------------------------------------------------------------------|
 
 
[Pre-Chorus] (1:22)
 
G|---------------------------------------7-7-7-7--------------------|
D|------------------------------------------------------------------|
A|------------------------------------------------------------------|
E|------------------------------------------------------------------|
 
 
[Chorus] (1:27)
 
G|------------------------------5P----------------------------------|
D|-0--0-3h5----------0--0-3h5---------------------------------------|
A|----------3--0--1-----------3-----0--1----------------------------| (x2)
E|------------------------------------------------------------------|
 
 
[Post-Chorus] (1:49)
 
G|------------------------------------------------------------------|
D|-0--0-3h5---------------------------------------------------------|
A|----------3--0--1-------------------------------------------------| (x2)
E|------------------------------------------------------------------|
 
 
[Bridge] (2:00)
 
G|------------------------------------------------------------------|
D|----x-5----x-7-----------------x-5-----x-7------------------3-----|
A|----------------1--1-0h1h3------------------1--1-0h1h3--3h5-------|
E|-3-----x-5------------------3------x-5----------------------------|
 
G|------------------------------------------------------------------|
D|----x-5----x-7-----------------x-5-----x-7------------------------|
A|----------------1--1-0h1h3------------------1--1-0h1h3------------|
E|-3-----x-5------------------3------x-5----------------------------|
 
 
[Chorus] (2:21)
 
G|------------------------------5P----------------------------------|
D|-0--0-3h5----------0--0-3h5---------------------------------------|
A|----------3--0--1-----------3-----0--1----------------------------| (x2)
E|------------------------------------------------------------------|
 
G|------------------------------------------------------------------|
D|-0--0-3h5----------0--0-3h5---------------------------------------|
A|----------3--0--1-----------3--0--1-------------------------------|
E|------------------------------------------------------------------|
            
Submit corrections

↑ Back to top | Tablatures and chords for acoustic guitar and electric guitar, ukulele, drums are parodies/interpretations of the original songs. You may use it for private study, scholarship, research or language learning purposes only